Guitaretab - guitar tabs
Song name
# A B C D E F G H I J K L M N O P Q R S T U V W X Y Z

Black Stone Cherry - Please Come In tab

Tabbed by: shelikesmylicks
Email: guitarfreak_rick@hotmail.com

Tuning: Drop C#

Have Fun with it, when you know the songs format is sounds great :)
Contact me with any queries/improvements

D#|----------------------|
A#|----------------------|
F#|-4-4hbr-p2-1-2--------|
C#|----------------------|  x4
G#|----------------------|
C#|----------------0-3-0-|

D#|----------------------|
A#|-3-3hbr---------------|
F#|-4-4hbr-p2-1-2--------|
C#|----------------------| Main Riff
G#|----------------0-3-0-|
C#|----------------0-3-0-|

D#|---------------------------------------|
A#|---------------------------------------|
F#|---------------------------------------| Verse followed by Main Riff
C#|---------------------------------------|
G#|-5----------5----------555-------------|
C#|-5----------5----------555----55555555-|

D#|-------5-------5-------5-------5-|
A#|-----7---7---7---7---7---7---7---|
F#|---7-------7-------7-------7-----|
C#|---------------------------------| x2 (Goodbye)
G#|-5-------------------------------|
C#|---------------------------------|

D#|---------------------------------------|
A#|---77777777-22222222-33333333----------|
F#|---77777777-22222222-44444444-77777777-|
C#|---77777777-22222222-44444444-77777777-| x2 Chorus
G#|---55555555-00000000-22222222-55555555-|
C#|------------------------------55555555-|

D#|---------------------------------------------------|
A#|---------------------------------------------------|
F#|---------------------------------------------------| 
C#|---------------------------------------------------| verse with riff
G#|-5----------5----------555---------5-3-0-3-0-------|
C#|-5----------5----------555-------------------5-0---|

D#|---------------------------------------|
A#|---33333333-77777777-77777777----------|
F#|---44444444-77777777-77777777-77777777-| Post Chorus (If you look)
C#|---44444444-77777777-77777777-77777777-| 
G#|---22222222-55555555-55555555-55555555-|
C#|---------------------00000000-55555555-|
[ Tab from: http://www.guitaretab.com/b/black-stone-cherry/186074.html ]
D#|---------------------------------------|
A#|---33333333-77777777-------------------|
F#|---44444444-77777777-------------------| Post Chorus continued
C#|---44444444-77777777-22222222-55555555-| 
G#|---22222222-55555555-22222222-55555555-|
C#|---------------------22222222-55555555-|

D#|-----------------------------------------------------|
A#|-----------------------------------------------------|
F#|-----------------------------------------------------| 
C#|---(5)/12\-4-5-44-2s4-5-44-2s4-9---9-h11-12-11s-9-7--| solo
G#|---(5)/12\-------------------------------------------|
C#|-----------------------------------------------------|

D#|---5-------5-------5-------5-------5-------5-------5-------5-----|
A#|7----7---7---7---6---6---6---6---7---7---7---7---8---8---8---8---|
F#|7------7-------7-7-----7-------7-7-----7-------7-7-----7-------7-|x2
C#|-----------------------------------------------------------------|
G#|5----------------4---------------5-------------------------------|
C#|-------------------------------------------------0---------------|

D#|---------------------------------------|
A#|---77777777-22222222-33333333----------|
F#|---77777777-22222222-44444444-77777777-|
C#|---77777777-22222222-44444444-77777777-| Chorus- repeat under solo
G#|---55555555-00000000-22222222-55555555-|
C#|------------------------------55555555-|


D#|-------------------------------------------------------------------|
A#|7----------8-7------7h8-7---7--------------------------------------|
F#|--7-----7------9-7--------9---9-7-9-76h7-7-7h9-9-9h11-12-11h12-14-| 
C#|----7h9------------------------------------------------------------| 
G#|-------------------------------------------------------------------|
C#|-------------------------------------------------------------------|

D#|----------------------------------------|			
A#|-------14-15-15--14-15-15-s17-15--------|
F#|-14-14----------------------------------| solo
C#|----------------------------------------| 
G#|----------------------------------------|
C#|----------------------------------------|

D#|---|
A#|---|
F#|-7-|
C#|-7-| final chord
G#|-5-|
C#|-5-|

| /  slide up
| \  slide down
| h  hammer-on
| p  pull-off
| ~  vibrato
| +  harmonic
| x  Mute note
| hb Half Bend
| r Release
===============================================================================
Related for Please Come In tab