Guitaretab - guitar tabs
Song name
# A B C D E F G H I J K L M N O P Q R S T U V W X Y Z

Black Stone Cherry - The Key tab

Band: Black Stone Cherry
Song: The Key
CD:   Folklore and Superstition
Year: 2008
Tune: Drop C

*Note: This is incomplete but I did my best*

  Intro: (use delay)
D|------------------------------------|
A|------------------------------------|
F|------------------------------------|
C|------------------------------------|
G|----------------------3-(3)---------|
C|---0-(0)-3-(3)-0-(0)--------5-(5)---|


   Pre Verse:
D|--------------------------------------|
A|--------------------------------------|
F|---------------5----------------------|
C|---0-0--3-5----5--5b--0-3-5-5b-5-3----|
G|---0-0--3-5----3--5b--0-3-5-5b-5-3----|
C|---0-0--3-5--0----5b--0-3-5-5b-5-3----|

D|--------------------------------------|
A|--------------------------------------|
F|---------------5----------------------|
C|---0-0--3-5----5--5b--0-3-5-5b-5-3----|
G|---0-0--3-5----3--5b--0-3-5-5b-5-3----|
C|---0-0--3-5--0----5b--0-3-5-5b-5-3----|

  Solo thingy:
D|--------------------------------------|
A|--------------------------------------|
F|---------------5----------------------|
C|---0-0--3-5----5--5b--0-3-5-5b-5-3----|
G|---0-0--3-5----3--5b--0-3-5-5b-5-3----|
C|---0-0--3-5--0----5b--0-3-5-5b-5-3----|
 |
 |
D|--------------------|
A|---11h12-11---------|
F|------------13-12---|
C|--------------------|
G|--------------------|
C|--------------------|

D|--------------------------------------|
A|--------------------------------------|
F|---------------5----------------------|
C|---0-0--3-5----5--5b--0-3-5-5b-5-3----|
G|---0-0--3-5----3--5b--0-3-5-5b-5-3----|
C|---0-0--3-5--0----5b--0-3-5-5b-5-3----|
 |
 |
D|--------------------|
A|---11h12-11---------|
F|------------13-12---|
C|--------------------|
G|--------------------|
C|--------------------|


   Verse: (heavy palm muted)
D|--------------------------------------|
A|--------------------------------------|
F|--------------------------------------|
C|--------------------------------------|
G|---------------3----------------------|
C|---0-0--3-5--0----5b--0-3-5-5b-5-3----|


D|--------------------------------------|
A|--------------------------------------|
F|--------------------------------------|
C|--------------------------------------|
G|---------------3----------------------|
C|---0-0--3-5--0----5b--0-3-5-5b-5-3----|

    (light palm mute)
D|--------------------------------------|
A|--------------------------------------|
F|---------------5----------------------|
C|---0-0--3-5----5--5b--0-3-5-5b-5-3----|
G|---0-0--3-5----3--5b--0-3-5-5b-5-3----|
C|---0-0--3-5--0----5b--0-3-5-5b-5-3----|

D|--------------------------------------|
A|--------------------------------------|
F|---------------5----------------------|
C|---0-0--3-5----5--5b--0-3-5-5b-5-3----|
G|---0-0--3-5----3--5b--0-3-5-5b-5-3----|
C|---0-0--3-5--0----5b--0-3-5-5b-5-3----|

   Pre Chorus:
D|-------------------|
A|-------------------|
F|---3-------3---5---|
C|---3---5---3---5---|
G|---1---5---1---3---|
C|-------5-----------|

   Chorus
D|-----------------------------------------|
A|-----------------------------------------|
F|---7----7----7-5-5-5-3---3---3-----------|
C|---7----7----7-5-5-5-3---3---3-5-5-7-0---|
G|---5----5----5-3-3-3-1---1---1-5-5-7-0---|
C|---0---------------------------5-5-7-0---|

D|---------------------------------------|
A|---------------------------------------|
F|------7----7-5-5-5-3---3---3-5-5-7-7---|
C|------7----7-5-5-5-3---3---3-5-5-7-7---|
G|------5----5-3-3-3-1---1---1-3-3-5-5---|
C|---------------------------------------|

[ Tab from: http://www.guitaretab.com/b/black-stone-cherry/187112.html ]
   Pre Verse:
D|--------------------------------------|
A|--------------------------------------|
F|---------------5----------------------|
C|---0-0--3-5----5--5b--0-3-5-5b-5-3----|
G|---0-0--3-5----3--5b--0-3-5-5b-5-3----|
C|---0-0--3-5--0----5b--0-3-5-5b-5-3----|
 |
 |
D|--------------------|
A|---11h12-11---------|
F|------------13-12---|
C|--------------------|
G|--------------------|
C|--------------------|

D|--------------------------------------|
A|--------------------------------------|
F|---------------5----------------------|
C|---0-0--3-5----5--5b--0-3-5-5b-5-3----|
G|---0-0--3-5----3--5b--0-3-5-5b-5-3----|
C|---0-0--3-5--0----5b--0-3-5-5b-5-3----|
 |
 |
D|--------------------|
A|---11h12-11---------|
F|------------13-12---|
C|--------------------|
G|--------------------|
C|--------------------|


   Verse: (heavy palm muted)
D|--------------------------------------|
A|--------------------------------------|
F|--------------------------------------|
C|--------------------------------------|
G|---------------3----------------------|
C|---0-0--3-5--0----5b--0-3-5-5b-5-3----|


D|--------------------------------------|
A|--------------------------------------|
F|--------------------------------------|
C|--------------------------------------|
G|---------------3----------------------|
C|---0-0--3-5--0----5b--0-3-5-5b-5-3----|

    (light palm mute)
D|--------------------------------------|
A|--------------------------------------|
F|---------------5----------------------|
C|---0-0--3-5----5--5b--0-3-5-5b-5-3----|
G|---0-0--3-5----3--5b--0-3-5-5b-5-3----|
C|---0-0--3-5--0----5b--0-3-5-5b-5-3----|

D|--------------------------------------|
A|--------------------------------------|
F|---------------5----------------------|
C|---0-0--3-5----5--5b--0-3-5-5b-5-3----|
G|---0-0--3-5----3--5b--0-3-5-5b-5-3----|
C|---0-0--3-5--0----5b--0-3-5-5b-5-3----|


   Pre Chorus:
D|-------------------|
A|-------------------|
F|---3-------3---5---|
C|---3---5---3---5---|
G|---1---5---1---3---|
C|-------5-----------|


   Chorus
D|-----------------------------------------|
A|-----------------------------------------|
F|---7----7----7-5-5-5-3---3---3-----------|
C|---7----7----7-5-5-5-3---3---3-5-5-7-0---|
G|---5----5----5-3-3-3-1---1---1-5-5-7-0---|
C|---0---------------------------5-5-7-0---|

D|---------------------------------------|
A|---------------------------------------|
F|------7----7-5-5-5-3---3---3-5-5-7-7---|
C|------7----7-5-5-5-3---3---3-5-5-7-7---|
G|------5----5-3-3-3-1---1---1-3-3-5-5---|
C|---------------------------------------|

   Solo:
D|---
A|---
F|---
C|---
G|---
C|---


   Bridge: (harmonica solo??)
D|--------------------------------------------|
A|--------------------------------------------|
F|--------------------------------------------|
C|--------------------------------------------|
G|--------------------------------------------|
C|---0-0-3-3--0-0-0h3-3--0-0-3-3--0-0-0h3-3---|


   Chorus
D|-----------------------------------------|
A|-----------------------------------------|
F|---7----7----7-5-5-5-3---3---3-----------|
C|---7----7----7-5-5-5-3---3---3-5-5-7-0---|
G|---5----5----5-3-3-3-1---1---1-5-5-7-0---|
C|---0---------------------------5-5-7-0---|

D|---------------------------------------|
A|---------------------------------------|
F|------7----7-5-5-5-3---3---3-5-5-7-7---|
C|------7----7-5-5-5-3---3---3-5-5-7-7---|
G|------5----5-3-3-3-1---1---1-3-3-5-5---|
C|---------------------------------------|


   Outro:
D|--------------------------------------------|
A|--------------------------------------------|
F|--------------------------------------------|
C|---0-0-3-3--0-0-0h3-3--0-0-3-3--0-0-0h3-3---|
G|---0-0-3-3--0-0-0h3-3--0-0-3-3--0-0-0h3-3---|
C|---0-0-3-3--0-0-0h3-3--0-0-3-3--0-0-0h3-3---|
Related for The Key tab
The Key chords by Black Stone Cherry