Song name
# A B C D E F G H I J K L M N O P Q R S T U V W X Y Z

Black Stone Cherry - Please Come In tab

Band: Black Stone Cherry
Song: Please Come In
CD:   Folklore and Superstition
Year: 2008
Tune: Drop C

*Notes: This is incomplete, as you'll see. But I tried
my best at it.*


   Intro:
D|---------------------------------------------------|
A|---------------------------------------------------|
F|---5--3h5-/-1-\-3----------5--3h5-/-1-\-3----------|
C|-------------------1-3-0-------------------1-3-0---|
G|-------------------1-3-0-------------------1-3-0---|
C|-------------------1-3-0-------------------1-3-0---|

   Verse:
D|---1----1----1---|
A|---4----4----4---|
F|---3----3----3---|
C|---1----1----1---|
G|-----------------|
C|-----------------|

D|---------------------------------------------------|
A|---------------------------------------------------|
F|---5--3h5-/-1-\-3----------5--3h5-/-1-\-3----------|
C|-------------------1-3-0-------------------1-3-0---|
G|-------------------1-3-0-------------------1-3-0---|
C|-------------------1-3-0-------------------1-3-0---|

D|---1----1----1---|
A|---4----4----4---|
F|---3----3----3---|
C|---1----1----1---|
G|-----------------|
C|-----------------|

D|---------------------------------------------------|
A|---------------------------------------------------|
F|---5--3h5-/-1-\-3----------5--3h5-/-1-\-3----------|
C|-------------------1-3-0-------------------1-3-0---|
G|-------------------1-3-0-------------------1-3-0---|
C|-------------------1-3-0-------------------1-3-0---|

D|---------------------------------------------------|
A|---------------------------------------------------|
F|---5--3h5-/-1-\-3----------5--3h5-/-1-\-3----------|
C|-------------------1-3-0-------------------1-3-0---|
G|-------------------1-3-0-------------------1-3-0---|
C|-------------------1-3-0-------------------1-3-0---|

D|---1----1----1---|
A|---4----4----4---|
F|---3----3----3---|
C|---1----1----1---|
G|-----------------|
C|-----------------|


   Pre chorus:
D|---
A|---
F|---
C|---
G|---
C|---


   Chorus:
D|-----------------------------------------|
A|-----------------------------------------|
F|---88888888-88888888-55555555------------|
C|---88888888-88888888-55555555-66666666---|
G|---66666666-55555555-33333333-66666666---|
C|------------------------------66666666---|

   Pre Verse:
D|---------------------------------------------------|
A|---------------------------------------------------|
F|---5--3h5-/-1-\-3----------5--3h5-/-1-\-3----------|
C|-------------------1-3-0-------------------1-3-0---|
G|-------------------1-3-0-------------------1-3-0---|
C|-------------------1-3-0-------------------1-3-0---|

D|---------------------------------------------------|
A|---------------------------------------------------|
F|---5--3h5-/-1-\-3----------5--3h5-/-1-\-3----------|
C|-------------------1-3-0-------------------1-3-0---|
G|-------------------1-3-0-------------------1-3-0---|
C|-------------------1-3-0-------------------1-3-0---|

   Verse:
D|---1----1----1---|
A|---4----4----4---|
F|---3----3----3---|
C|---1----1----1---|
G|-----------------|
C|-----------------|

D|---------------------------------------------------|
A|---------------------------------------------------|
F|---5--3h5-/-1-\-3----------5--3h5-/-1-\-3----------|
C|-------------------1-3-0-------------------1-3-0---|
G|-------------------1-3-0-------------------1-3-0---|
C|-------------------1-3-0-------------------1-3-0---|

D|---1----1----1---|
A|---4----4----4---|
F|---3----3----3---|
C|---1----1----1---|
G|-----------------|
C|-----------------|

   Pre chorus:
D|---
A|---
F|---
C|---
G|---
C|---


   Chorus:
D|-----------------------------------------|
A|-----------------------------------------|
F|---88888888-88888888-55555555------------|
C|---88888888-88888888-55555555-66666666---|
G|---66666666-55555555-33333333-66666666---|
C|------------------------------66666666---|


   Bridge:
D|---------------------------------------|
A|---------------------------------------|
F|---88888888---------88888888-----------|
C|---88888888-0000000-88888888-0000000---|
G|---66666666-0000000-66666666-0000000---|
C|------------0000000----------0000000---|

   Solo:
D|--------------------------------------------------------|
A|--------------------------------------------------------|
F|---12b-12-12---12-10-12---12b-12-12---12-10-12----------|
C|-------------------------------------------------/-11---|
G|--------------------------------------------------------|
C|--------------------------------------------------------|
    (Keep bent)             (Keep bent)


D|-----------------------------|
A|-----------------------------|
F|-----------------------------|
C|---11--13--14---13--11--13---|
G|-----------------------------|
C|-----------------------------|

   Pre chorus:
D|---
A|---
F|---
C|---
G|---
C|---


   Chorus:
D|-----------------------------------------|
A|-----------------------------------------|
F|---88888888-88888888-55555555------------|
C|---88888888-88888888-55555555-66666666---|
G|---66666666-55555555-33333333-66666666---|
C|------------------------------66666666---|

   Solo:
D|----------------------------------------------------------|
A|----------------------------------------------------------|
F|---12-10---------12br-12-10-----12br-12-10-12br--9-10-9---|
C|---------12-13--------------13----------------------------|
G|----------------------------------------------------------|
C|----------------------------------------------------------|
Tap to rate this tab
 
# A B C D E F G H I J K L M N O P Q R S T U V W X Y Z