Guitaretab - guitar tabs
Song name
# A B C D E F G H I J K L M N O P Q R S T U V W X Y Z

Black Stone Cherry - Ghost Of Floyd Collins tab

GHOST OF FLOYD COLLINS
Black Stone Cherry
FOLKLORE AND SUPERSTITION

Transcribed by tilleking
	
* note: this is an export from my PTB file for the song, in case anyone
doesn't have Powertab to view it. There are some problems with the second
half of the solo, but the rest is mostly right.

(See legend at the bottom)

Gtr 1 (C# G# C# F# A# D#) - 'Ben Wells'
Gtr 2 (C# G# C# F# A# D#) - 'Chris Robertson'

 Intro
  $
  Gtr 1
|---------------------------|---------------------------|
|---------------------------|---------------------------|
|---------------------------|---------------------------|
|---------------------------|-----------------------3---|
|-5-------3-----5-5-----3---|-5-------3-----5-5-------5-|
|---0-2-3---5-3-----3-5---5-|---0-2-3---5-3-----3-5-----|


|---------------------------------------|
|---------------------------------------|
|---------------------------------------|
|---------------------------------------|
|--5-----------3--------5--5--------3---|
|-----0--2--3-----5--3--------3--5----5-|
|
|  Gtr 2
|---------------------------------------|
|---------------------------------------|
|-14-13-12----12------------------------|
|----------15----15-12-15-12------------|
|----------------------------12-11-10-8-|
|---------------------------------------|


|-----------------------------------------|
|-----------------------------------------|
|-----------------------------------------|
|-----------------------------------3-----|
|--5-----------3--------5--5-----------5--|
|-----0--2--3-----5--3--------3--5--------|
|
|-----------------------------------------|
|-----------------------------------------|
|-14-13-12----12--------------------------|
|----------15----15-12-15-12--------------|
|----------------------------12-11-10-----|
|-------------------------------------12--|


   Verse
    PM|   PM|   PM|   PM|   PM|   ~~~~~~~~                           x2
||----------------------------------|--------------------------------||
||o---------------------------------|-------------------------------o||
||------------------5---------------|--------------------------------||
||------0-----3-----5-----3---------|-----/3-3-2-----------3h5-3-----||
||o-----0-----3-----3-----3-----3h5-|-(5)--------5-3h5-3---------5--o||
||--0-0-0-0-0-3-0-0---0-0-3-0-0-----|--------------------5-----------||


  PM|   PM|   PM|   PM|   PM|                               ~
|-------------------------------|------------------------------|
|-------------------------------|------------------------------|
|-----3-----5-------------------|-----------------0---3---5-3--|
|-----3-----5-----5-------------|---------0---3h4---1---5------|
|-----1-----3-----5-----6-----7-|-(7)-3h4---1------------------|
|-0-0---0-0---0-0-5-0-0-6-0-0-7-|-(7)--------------------------|


  PM|   PM|   PM|   PM|   PM|   ~~~~~~~~
|---------------------------------|-----------------------------|
|---------------------------------|-----------------------------|
|-----------------5---------------|-----------------------------|
|-----0-----3-----5-----3---------|-----3-3-2-----------3h5-3---|
|-----0-----3-----3-----3-----3h5-|-(5)-------5-3h5-3---------5-|
|-0-0-0-0-0-3-0-0---0-0-3-0-0-----|-------------------5---------|


 Bridge
|---------------|-------------------|
|---------------|-------------------|
|---------------|-------------------|
|-7--7--7-7---3-|-(3)-3-3-3-5-5-5-5-|
|-7--7--7-7---3-|-(3)-3-3-3-5-5-5-5-|
|-7--7--7-7-0-3-|-(3)-3-3-3-5-5-5-5-|


 Chorus
|------------------|------------------|-----------------|------------------|
|------------------|------------------|-----------------|------------------|
|-7-7-7-7-5--5-5-5-|------------------|-3-3-3-3-5-5-5-5-|-7-7-7-7-7-7--7-7-|
|-7-7-7-7-5--5-5-5-|-5-5-5-5-0--0-0-0-|-3-3-3-3-5-5-5-5-|-7-7-7-7-7-7--7-7-|
|-5-5-5-5-3--3-3-3-|-5-5-5-5-0--0-0-0-|-1-1-1-1-3-3-3-3-|-5-5-5-5-5-5--5-5-|
|------------------|-5-5-5-5-0--0-0-0-|-----------------|------------------|
|
| Gtr 2
|------------------|------------------|-----------------|------------------|
|------------------|------------------|-----------------|------------------|
|-7-7-7-7-5--5-5-5-|------------------|-3-3-3-3-5-5-5-5-|-7----------------|
|-7-7-7-7-5--5-5-5-|-5-5-5-5-7--7-7-7-|-3-3-3-3-5-5-5-5-|-x---7---8---10---|
|-5-5-5-5-3--3-3-3-|-5-5-5-5-5--5-5-5-|-1-1-1-1-3-3-3-3-|-5---x---x----x---|
|------------------|-5-5-5-5----------|-----------------|-----7---8---10---|


                                                                       D.S.
|------------------|------------------|-----------------|---------------------||
|------------------|------------------|-----------------|---------------------||
|-7-7-7-7-5--5-5-5-|------------------|-----------------|---------------------||
|-7-7-7-7-5--5-5-5-|-5-5-5-5-0--0-0-0-|-8-8-8-8-8-8-8-8-|-7-7-7-7-10-10-10-10-||
|-5-5-5-5-3--3-3-3-|-5-5-5-5-0--0-0-0-|-8-8-8-8-8-8-8-8-|-7-7-7-7-10-10-10-10-||
|------------------|-5-5-5-5-0--0-0-0-|-8-8-8-8-8-8-8-8-|-7-7-7-7-10-10-10-10-||
|
|------------------|------------------|-----------------|---------------------||
|------------------|------------------|-----------------|---------------------||
|-7-7-7-7-5--5-5-5-|------------------|-----------------|---------------------||
|-7-7-7-7-5--5-5-5-|-5-5-5-5-7--7-7-7-|-----------------|---------------------||
|-5-5-5-5-3--3-3-3-|-5-5-5-5-5--5-5-5-|-8-8-8-8-8-8-8-8-|-7-7-7-7-10-10-10-10-||
|------------------|-5-5-5-5----------|-8-8-8-8-8-8-8-8-|-7-7-7-7-10-10-10-10-||


 Middle                                                                      x2
|------------------------||------------------------|-------------------------||
|------------------------||o-----------------------|------------------------o||
|------------------------||------------------------|-------------------------||
|------------------------||--3-------3-------3-----|-3-------3-------3-------||
|------------------------||o---3-5-----3-5-----3-5-|---3-5-----3-5-----3-5--o||
|------------------------||--------0-------0-------|-------0-------0---------||
|
| Gtr 2
|------------------------||------------------------|-------------------------||
|------------------------||o-----------------------|------------------------o||
|------------------------||------------------------|-------------------------||
|-3-------3-------3------||--3-------3-------3-----|-3-------3-------3-------||
|---3-5-----3-5-----3-5--||o---3-5-----3-5-----3-5-|---3-5-----3-5-----3-5--o||
|-------0-------0--------||--------0-------0-------|-------0-------0---------||

[ Tab from: http://www.guitaretab.com/b/black-stone-cherry/187428.html ]
 Solo
|---------------------------------------------------------------------|
|---------------------------------------------------------------------|
|---------------------------------------------------------------------|
|--3-----------3---------------------------------------------3--------|
|-----3--5---------------3-----5----------------------------------3-5-|
|-----------0----------------------------0----------------------------|
|
|           ~~                                               ~~~~~
|---------------------------------------------------------------------|
|-------------13b15r(13)---10-13b15r(13)---10-13b15r(13)-10-13b15-----|
|-12-13-12-10---------------------------------------------------------|
|---------------------------------------------------------------------|
|---------------------------------------------------------------------|
|---------------------------------------------------------------------|


|--------------------------------------------|
|--------------------------------------------|
|--------------------------------------------|
|--3----------3----------------------3-------|
|-----3--5---------3---5---------------3--5--|
|-----------0--------------0-----------------|
|
|           ~~                 ~~  ~~~~~~~~~~
|--------------------------------------------|
|--------------------------------------------|
|-12-13-12-10-9h10p==9-7h9p==7-5h7p5-----(5)-|
|--------------------------------------------|
|--------------------------------------------|
|--------------------------------------------|


|-------------------------------------------------|
|-------------------------------------------------|
|-------------------------------------------------|
|------3----------------3------------3------------|
|------------3-5----------3-5-------------3--5----|
|----------------0------------0-------------------|
|
|                    ~~~~            ~~~~~~~~~~~~~~
|-----10-----------(10)-------------15b17---15b17-|
|-----13b15========(13)---------------------------|
|---x---------------------------------------------|
|-x-----------------------------------------------|
|-------------------------------------------------|
|-------------------------------(0)---------------|
       [the shoddy part, you may have to improvise]


|---------------------------------------------------|
|---------------------------------------------------|
|---------------------------------------------------|
|--3---------------------------3--------------3-----|
|--------3---5------------------------3--5------3-5-|
|---------------0---------------------------0-------|
|
|~~~~~~~~          ~~~~~~~~~~~              ~~
|-15b17====(15)---17-----(17)-15b17==15p13-10-------|
|-----------------20b22==(20)-----------------------|
|---------------------------------------------------|
|---------------------------------------------------|
|---------------------------------------------------|
|---------------------------------------------------|


 Breakdown
                                             >
                             PM|
|---------------|------------------|---------------|-----|
|---------------|------------------|---------------|-----|
|---------------|------------------|---------------|-----|
|-7--7--7-7---3-|-(3)----(3)-----5-|-(5)----(5)----|-----|
|-7--7--7-7---3-|-(3)----(3)-----5-|-(5)----(5)----|-----|
|-7--7--7-7-0-3-|-(3)----(3)-3-0-5-|-(5)----(5)----|-----|


 Final Chorus
  Gtr 1
|------------------|------------------|-----------------|------------------|
|------------------|------------------|-----------------|------------------|
|-7-7-7-7-5--5-5-5-|------------------|-3-3-3-3-5-5-5-5-|-7-7-7-7-7-7--7-7-|
|-7-7-7-7-5--5-5-5-|-5-5-5-5-0--0-0-0-|-3-3-3-3-5-5-5-5-|-7-7-7-7-7-7--7-7-|
|-5-5-5-5-3--3-3-3-|-5-5-5-5-0--0-0-0-|-1-1-1-1-3-3-3-3-|-5-5-5-5-5-5--5-5-|
|------------------|-5-5-5-5-0--0-0-0-|-----------------|------------------|
|
| Gtr 2
|------------------|------------------|-----------------|------------------|
|------------------|------------------|-----------------|------------------|
|-7-7-7-7-5--5-5-5-|------------------|-3-3-3-3-5-5-5-5-|-7----------------|
|-7-7-7-7-5--5-5-5-|-5-5-5-5-7--7-7-7-|-3-3-3-3-5-5-5-5-|-x---7---8---10---|
|-5-5-5-5-3--3-3-3-|-5-5-5-5-5--5-5-5-|-1-1-1-1-3-3-3-3-|-5---x---x----x---|
|------------------|-5-5-5-5----------|-----------------|-----7---8---10---|


|------------------|------------------|-----------------|---------------------|
|------------------|------------------|-----------------|---------------------|
|-7-7-7-7-5--5-5-5-|------------------|-----------------|---------------------|
|-7-7-7-7-5--5-5-5-|-5-5-5-5-0--0-0-0-|-8-8-8-8-8-8-8-8-|-7-7-7-7-10-10-10-10-|
|-5-5-5-5-3--3-3-3-|-5-5-5-5-0--0-0-0-|-8-8-8-8-8-8-8-8-|-7-7-7-7-10-10-10-10-|
|------------------|-5-5-5-5-0--0-0-0-|-8-8-8-8-8-8-8-8-|-7-7-7-7-10-10-10-10-|
|
|------------------|------------------|-----------------|---------------------|
|------------------|------------------|-----------------|---------------------|
|-7-7-7-7-5--5-5-5-|------------------|-----------------|---------------------|
|-7-7-7-7-5--5-5-5-|-5-5-5-5-7--7-7-7-|-----------------|---------------------|
|-5-5-5-5-3--3-3-3-|-5-5-5-5-5--5-5-5-|-8-8-8-8-8-8-8-8-|-7-7-7-7-10-10-10-10-|
|------------------|-5-5-5-5----------|-8-8-8-8-8-8-8-8-|-7-7-7-7-10-10-10-10-|


 Outro
|---------------------------|----------------------------|
|---------------------------|----------------------------|
|---------------------------|----------------------------|
|---------------------------|-----------------------3----|
|-5-------3-----5-5-----3---|-5-------3-----5-5-------5--|
|---0-2-3---5-3-----3-5---5-|---0-2-3---5-3-----3-5------|


|---------------------------------------|
|---------------------------------------|
|---------------------------------------|
|---------------------------------------|
|--5-----------3--------5--5--------3---|
|-----0--2--3-----5--3--------3--5----5-|
|
|  Gtr 2
|---------------------------------------|
|---------------------------------------|
|-14-13-12----12------------------------|
|----------15----15-12-15-12------------|
|----------------------------12-11-10-8-|
|---------------------------------------|


|-----------------------------------------*|
|-----------------------------------------*|
|-----------------------------------------*|
|-----------------------------------3-----*|
|--5-----------3--------5--5-----------5--*|
|-----0--2--3-----5--3--------3--5--------*|
|
|-----------------------------------------*|
|-----------------------------------------*|
|-14-13-12----12--------------------------*|
|----------15----15-12-15-12--------------*|
|----------------------------12-11-10-----*|
|-------------------------------------12--*|



Tablature Legend
----------------
 h   - hammer-on
 p   - pull-off
 b   - bend
 pb  - pre-bend
 r   - bend release (if no number after the r, then release immediately)
 /\  - slide into or out of (from/to "nowhere")
 s   - legato slide
 S   - shift slide
 - natural harmonic
[n]  - artificial harmonic
n(n) - tapped harmonic
 ~   - vibrato
 tr  - trill
 T   - tap
 TP  - trem. picking
 PM  - palm muting
\n/  - tremolo bar dip; n = amount to dip
 \n  - tremolo bar down
 n/  - tremolo bar up
/n\  - tremolo bar inverted dip
 =   - hold bend; also acts as connecting device for hammers/pulls
 <> - volume swell (louder/softer)
 x   - on rhythm slash represents muted slash
 o   - on rhythm slash represents single note slash

Misc Legend
-----------
 |  - bar
||  - double bar
||o - repeat start
o|| - repeat end
*|  - double bar (ending)
 :  - bar (freetime)
 $  - Segno
 &  - Coda



Related for Ghost Of Floyd Collins tab
Advertisement will be closed in 10 seconds