Song name
# A B C D E F G H I J K L M N O P Q R S T U V W X Y Z

Black Stone Cherry - Reverend Wrinkle tab

Black Stone Cherry
Folklore And Superstition
Reverend Wrinkle

Drop C

Intro

d|---1--1-1--1--1-1---4--4-4-3~~-------|
a|--3--3----3--3-----3--3----3~~-------|
f|-2--2--2-2--2--2--3--3--3--4~~-------|
c|-------------------------------------|
g|-------------------------------------|
C|-------------------------------------|

Riff 1
Twice:
d|-----------------------------------|
a|-----------------------------------|
f|-----------------------------------|
c|-----------------------------------|
g|---8---5---3---2-----------5~~-----|
C|-0---0---0---0---0---0-3h4---------|

d|-----------------------------------|
a|-----------------------------------|
f|-----------------------------------|
c|-----------------------------------|
g|---8---5---3---2-------------------|
C|-0---0---0---0---0---0-3h4--0------|

Verse:

d|-----------------------------------------|
a|-----------------------------------------|
f|-----------------------------------------|
c|-10-7-------5-5-------3-5--xx--3-0-------|
g|-8--5-------2-3-------3-5--xx--3-0-------|
C|----------------------3-5--xx--3-0-------|

d|-----------------------------------------|
a|-----------------------------------------|
f|-----------------------------------------|
c|-10-7-------5-5-------3-5--xx--3-0-------|
g|-8--5-------2-3-------3-5--xx--3-0-------|
C|----------------------3-5--xx--3-0-------|

d|-----------------------------------------|
a|-----------------------------------------|
f|-----------------------------------------|
c|-3-0--------5-5-------3-5--xx--3-0-------|
g|-3-0--------2-3-------3-5--xx--3-0-------|
C|-3-0------------------3-5--xx--3-0-------|

d|-----------------------------------------|
a|-----------------------------------------|
f|-----------------------------------------|
c|-3-0--------5-5-------3-5--xx--3-0-------|
g|-3-0--------2-3-------3-5--xx--3-0-------|
C|-3-0------------------3-5--xx--3-0-------|

Pre-Chorus

Guitar 1:
d|-----------------------------------------|
a|-----------------------------------------|
f|-----------------------------------------|
c|-----------------------------------------|
g|-7-7-9-7-7-7-9-7-7-7-9-7-7-7-9-7---------|
C|-7-7-7-7-7-7-7-7-7-7-7-7-7-7-7-7---------|

d|-----------------------------------------|
a|-----------------------------------------|
f|-----------------pm----------------------|
c|-----------------3-3-3-3-3-3-3-3---------|
g|-5-5-7-5-5-5-7-5-3-3-3-3-3-3-3-3---------|
C|-5-5-5-5-5-5-5-5-3-3-3-3-3-3-3-3---------|

Guitar 2:
d|--9---9---9---9---9---9----9---9---------|
a|-----------------------------------------|
f|-/9--9---9---9---9---9---9---9---9-------|
c|-----------------------------------------|
g|-----------------------------------------|
C|-----------------------------------------|

d|--7---7---7---7---5---5---5---5----------|
a|-----------------------------------------|
f|----7---7---7---7---5---5---5------------|
c|-----------------------------------------|
g|-----------------------------------------|
C|-----------------------------------------|


Chorus:

d|-----------------------------------------|
a|-3---------------------------------------|
f|-2------------3--------------------------|
c|-0-----3------3------5-------------------|
g|-0-----3------1------5-------------------|
C|-0-----3-------------5-------------------|

d|-----------------------------------------|
a|-3---------------------------------------|
f|-2------------3------5-------------------|
c|-0-----3------3------5-------------------|
g|-0-----3------1------3-------------------|
C|-0-----3---------------------------------|


Riff 1
Once
d|-----------------------------------|
a|-----------------------------------|
f|-----------------------------------|
c|-----------------------------------|
g|---8---5---3---2-----------5~~-----|
C|-0---0---0---0---0---0-3h4---------|

d|-----------------------------------|
a|-----------------------------------|
f|-----------------------------------|
c|-----------------------------------|
g|---8---5---3---2-------------------|
C|-0---0---0---0---0---0-3h4--0------|

Verse:

d|-----------------------------------------|
a|-----------------------------------------|
f|-----------------------------------------|
c|-10-7-------5-5-------3-5--xx--3-0-------|
g|-8--5-------2-3-------3-5--xx--3-0-------|
C|----------------------3-5--xx--3-0-------|

d|-----------------------------------------|
a|-----------------------------------------|
f|-----------------------------------------|
c|-10-7-------5-5-------3-5--xx--3-0-------|
g|-8--5-------2-3-------3-5--xx--3-0-------|
C|----------------------3-5--xx--3-0-------|

d|-----------------------------------------|
a|-----------------------------------------|
f|-----------------------------------------|
c|-3-0--------5-5-------3-5--xx--3-0-------|
g|-3-0--------2-3-------3-5--xx--3-0-------|
C|-3-0------------------3-5--xx--3-0-------|

d|-----------------------------------------|
a|-----------------------------------------|
f|-----------------------------------------|
c|-3-0--------5-5-------3-5--xx--3-0-------|
g|-3-0--------2-3-------3-5--xx--3-0-------|
C|-3-0------------------3-5--xx--3-0-------|

Pre-Chorus

Guitar 1:
d|-----------------------------------------|
a|-----------------------------------------|
f|-----------------------------------------|
c|-----------------------------------------|
g|-7-7-9-7-7-7-9-7-7-7-9-7-7-7-9-7---------|
C|-7-7-7-7-7-7-7-7-7-7-7-7-7-7-7-7---------|

d|-----------------------------------------|
a|-----------------------------------------|
f|-----------------pm----------------------|
c|-----------------3-3-3-3-3-3-3-3---------|
g|-5-5-7-5-5-5-7-5-3-3-3-3-3-3-3-3---------|
C|-5-5-5-5-5-5-5-5-3-3-3-3-3-3-3-3---------|

Guitar 2:
d|--9---9---9---9---9---9----9---9---------|
a|-----------------------------------------|
f|-/9--9---9---9---9---9---9---9---9-------|
c|-----------------------------------------|
g|-----------------------------------------|
C|-----------------------------------------|

d|--7---7---7---7---5---5---5---5----------|
a|-----------------------------------------|
f|----7---7---7---7---5---5---5------------|
c|-----------------------------------------|
g|-----------------------------------------|
C|-----------------------------------------|

Chorus:

d|-----------------------------------------|
a|-3---------------------------------------|
f|-2------------3--------------------------|
c|-0-----3------3------5-------------------|
g|-0-----3------1------5-------------------|
C|-0-----3-------------5-------------------|

d|-----------------------------------------|
a|-3---------------------------------------|
f|-2------------3------5-------------------|
c|-0-----3------3------5-------------------|
g|-0-----3------1------3-------------------|
C|-0-----3---------------------------------|

Bridge:

Bass Part:

f|----------------------------------------------------------|
c|----------------------------------------------------------|
g|----------------------------------------------------------|
C|-3-5-0---3--3-5-0---3-5-0----3--3-5-0---3-5-0----3--3-5-0-|

Repeat and Add Drums

Then, one extra beat, then

Keep repeating:
d|--------------------------------------------------------|
a|--------------------------------------------------------|
f|--------------------------------------------------------|
c|--0-0-0--3--3---0-0-0--3--3---0-0-0--3--3---0-0-0--3--3-|
g|--0-0-0--3--3---0-0-0--3--3---0-0-0--3--3---0-0-0--3--3-|
C|--0-0-0--3--3---0-0-0--3--3---0-0-0--3--3---0-0-0--3--3-|

Last Part of Rhythm Part Under The Lead:

d|--------------------------------------------------------|
a|--------------------------------------------------------|
f|--------------------------------------------------------|
c|--0-0-0--3--3~~~~---------------------------------------|
g|--0-0-0--3--3~~~~---------------------------------------|
C|--0-0-0--3--3~~~~---------------------------------------|

Lead Part:

d|---------------------------------------------|
a|---------------------------------------------|
f|-9--7--6--6--6h7p6--4---4--6--7--6--6h7p6--4-|
c|---------------------------------------------|
g|---------------------------------------------|
C|---------------------------------------------|

d|---------------------------------------------|
a|---------------------------------------------|
f|-9--7--6--6--6h7p6--4---4--6--7--2~~---------|
c|---------------------------------------------|
g|---------------------------------------------|
C|---------------------------------------------|

d|---------------------------------------------|
a|--12-10-12-10-12--12b13~~~-------------------|
f|---------------------------------------------|
c|---------------------------------------------|
g|---------------------------------------------|
C|---------------------------------------------|

Guitar Part:

Twice:
d|---------------------------------------------|
a|---------------------------------------------|
f|---------------------------------------------|
c|---3-------5/7-5-0-3-5-----------------------|
g|-----5-3-0-------------3---------------------|
C|-0-------------------------------------------|

d|---------------------------------------------|
a|---------------------------------------------|
f|---------------------------------------------|
c|---3-----------------------------------------|
g|-----5-3-0-5-3-0-----------------------------|
C|-0---------------3-4-5-----------------------|

Pre-Chorus

Guitar 1:
d|-----------------------------------------|
a|-----------------------------------------|
f|-----------------------------------------|
c|-----------------------------------------|
g|-7-7-9-7-7-7-9-7-7-7-9-7-7-7-9-7---------|
C|-7-7-7-7-7-7-7-7-7-7-7-7-7-7-7-7---------|

d|-----------------------------------------|
a|-----------------------------------------|
f|-----------------pm----------------------|
c|-----------------3-3-3-3-3-3-3-3---------|
g|-5-5-7-5-5-5-7-5-3-3-3-3-3-3-3-3---------|
C|-5-5-5-5-5-5-5-5-3-3-3-3-3-3-3-3---------|

Guitar 2:
d|--9---9---9---9---9---9----9---9---------|
a|-----------------------------------------|
f|-/9--9---9---9---9---9---9---9---9-------|
c|-----------------------------------------|
g|-----------------------------------------|
C|-----------------------------------------|

d|--7---7---7---7---5---5---5---5----------|
a|-----------------------------------------|
f|----7---7---7---7---5---5---5------------|
c|-----------------------------------------|
g|-----------------------------------------|
C|-----------------------------------------|

Chorus:

d|-----------------------------------------|
a|-3---------------------------------------|
f|-2------------3--------------------------|
c|-0-----3------3------5-------------------|
g|-0-----3------1------5-------------------|
C|-0-----3-------------5-------------------|

d|-----------------------------------------|
a|-3---------------------------------------|
f|-2------------3------5-------------------|
c|-0-----3------3------5-------------------|
g|-0-----3------1------3-------------------|
C|-0-----3---------------------------------|

d|-----------------------------------------|
a|-3---------------------------------------|
f|-2------------3--------------------------|
c|-0-----3------3------5-------------------|
g|-0-----3------1------5-------------------|
C|-0-----3-------------5-------------------|

d|-----------------------------------------|
a|-3---------------------------------------|
f|-2------------3------5-------------------|
c|-0-----3------3------5-------------------|
g|-0-----3------1------3-------------------|
C|-0-----3---------------------------------|

Lead Solo:
(Not 100% correct, just a few of the riffs from the solo)

d|-----------------------------------------------------|
a|-----------------------------------------------------|
f|--12b13r12p10----------------------------------------|
c|---------------12------------------------------------|
g|-----------------------------------------------------|
C|-----------------------------------------------------|

d|-----------------------------------------------------|
a|-----------------------------------------------------|
f|-----------10~~----------10~~------------------------|
c|-----10-12---------10-12-----------------------------|
g|--12------------12-----------------------------------|
C|-----------------------------------------------------|

d|--15b17~~--15b17r15p13-15-15b17-13~~-----------------|
a|-----------------------------------------------------|
f|-----------------------------------------------------|
c|-----------------------------------------------------|
g|-----------------------------------------------------|
C|-----------------------------------------------------|

d|-----------------------------------------------------|
a|-----------------------------------------------------|
f|-10h12p10h12p10h12p10h12p10h12p10h12p10h12p----------|
c|-----------------------------------------------------|
g|-----------------------------------------------------|
C|-----------------------------------------------------|

Outro Riff:

d|-----------------------------------|
a|-----------------------------------|
f|-----------------------------------|
c|-----------------------------------|
g|---8---5---3---2-----------5~~-----|
C|-0---0---0---0---0---0-3h4---------|

d|-----------------------------------|
a|-----------------------------------|
f|-----------------------------------|
c|-----------------------------------|
g|---8---5---3---2-------------------|
C|-0---0---0---0---0---0-3h4--0------|

d|-----------------------------------|
a|-----------------------------------|
f|-----------------------------------|
c|-----------------------------------|
g|---8---5---3---2-----------5~~-----|
C|-0---0---0---0---0---0-3h4---------|

d|-----------------------------------|
a|-----------------------------------|
f|-----------------------------------|
c|----------------------------0------|
g|---8---5---3---2------------0------|
C|-0---0---0---0---0---0-3h4--0------|

Lead Part Under Outro Riff:

d|-----------------------------------------------------|
a|-13b15~~~~-------------------------------------------|
f|----------------12b14r12-10~~~~---------10h11--------|
c|--------------------------------------12-----12\\\\--|
g|-----------------------------------------------------|
C|-----------------------------------------------------|
Tap to rate this tab
# A B C D E F G H I J K L M N O P Q R S T U V W X Y Z