Song name
# A B C D E F G H I J K L M N O P Q R S T U V W X Y Z

Black Stone Cherry - The Bitter End tab

Black Stone Cherry
Folklore And Superstition
The Bitter End

Drop C

Light Distortion
3 Times:
       PM-----------|   PM-|  PM---------------------|
d|---------------------------------------------------|
a|---------------------------------------------------|
f|---------------------------------------------------|
c|--------------------------------3p0----------------|
g|--------------------3p0---5p0----------------------|
C|-0----0-0-0-0-0-0-------0-----0--------------------|

4th Time:
       PM--------------------------------------------|    Heavy Distortion
d|---------------------------------------------------|
a|---------------------------------------------------|
f|-----------------------5-5-5-5-5-------------------|
c|-----------------------5-5-5-5-5-------------------|
g|-----------------------3-3-3-3-3-------------------|
C|-0----0-0-0-0-0-0----------------------------------|

3 Times:
       PM-----------|   PM-|  PM---------------------|
d|---------------------------------------------------|
a|---------------------------------------------------|
f|---------------------------------------------------|
c|--------------------------------3p0----------------|
g|--------------------3p0---5p0----------------------|
C|-0----0-0-0-0-0-0-------0-----0--------------------|

4th Time:
       PM--------------------------------------------|
d|---------------------------------------------------|
a|---------------------------------------------------|
f|-----------------------5-5-5-5-5-------------------|
c|-----------------------5-5-5-5-5-------------------|
g|-----------------------3-3-3-3-3-------------------|
C|-0----0-0-0-0-0-0----------------------------------|

Verse:

Twice:
Light Distortion:
3 Times:
       PM-----------|   PM-|  PM---------------------|
d|---------------------------------------------------|
a|---------------------------------------------------|
f|---------------------------------------------------|
c|--------------------------------3p0----------------|
g|--------------------3p0---5p0----------------------|
C|-0----0-0-0-0-0-0-------0-----0--------------------|

4th Time:
       PM--------------------------------------------|
d|---------------------------------------------------|
a|---------------------------------------------------|
f|-----------------------5-5-5-5-5-------------------|
c|-----------------------5-5-5-5-5-------------------|
g|-----------------------3-3-3-3-3-------------------|
C|-0----0-0-0-0-0-0----------------------------------|

Pre-Chorus:
      PM---------|      PM---------------------------|
d|---------------------------------------------------|
a|---------------------------------------------------|
f|--3------------------------------------------------|
c|--3--3-3-3-3-3----------5-5-5-5-5-5-5-5------------|
g|--1--1-1-1-1-1----------3-3-3-3-3-3-3-3------------|
C|---------------------------------------------------|

Chorus:

d|--------------------------------------------------|
a|-3------------------------------------------------|
f|-2-------------3------5---------------------------|
c|-0------3------3------5---------------------------|
g|-0------3------1------3---------------------------|
C|-0------3-----------------------------------------|

d|---------------------------|----------------------|
a|-3-------------------------|----------------------|
f|-2-------------3-----------|----------------------|
c|-0------3------3------5----|----3------7----------|
g|-0------3------1------5----|----3------7----------|
C|-0------3-------------5----|----3------7----------|


Play Intro Again:

3 Times:
       PM-----------|   PM-|  PM---------------------|
d|---------------------------------------------------|
a|---------------------------------------------------|
f|---------------------------------------------------|
c|--------------------------------3p0----------------|
g|--------------------3p0---5p0----------------------|
C|-0----0-0-0-0-0-0-------0-----0--------------------|

4th Time:
       PM--------------------------------------------|
d|---------------------------------------------------|
a|---------------------------------------------------|
f|-----------------------5-5-5-5-5-------------------|
c|-----------------------5-5-5-5-5-------------------|
g|-----------------------3-3-3-3-3-------------------|
C|-0----0-0-0-0-0-0----------------------------------|

Verse:

Twice:
Light Distortion:
3 Times:
       PM-----------|   PM-|  PM---------------------|
d|---------------------------------------------------|
a|---------------------------------------------------|
f|---------------------------------------------------|
c|--------------------------------3p0----------------|
g|--------------------3p0---5p0----------------------|
C|-0----0-0-0-0-0-0-------0-----0--------------------|

4th Time:
       PM--------------------------------------------|
d|---------------------------------------------------|
a|---------------------------------------------------|
f|-----------------------5-5-5-5-5-------------------|
c|-----------------------5-5-5-5-5-------------------|
g|-----------------------3-3-3-3-3-------------------|
C|-0----0-0-0-0-0-0----------------------------------|

Pre-Chorus:
      PM---------|      PM---------------------------|
d|---------------------------------------------------|
a|---------------------------------------------------|
f|--3------------------------------------------------|
c|--3--3-3-3-3-3----------5-5-5-5-5-5-5-5------------|
g|--1--1-1-1-1-1----------3-3-3-3-3-3-3-3------------|
C|---------------------------------------------------|

Chorus:

d|--------------------------------------------------|
a|-3------------------------------------------------|
f|-2-------------3------5---------------------------|
c|-0------3------3------5---------------------------|
g|-0------3------1------3---------------------------|
C|-0------3-----------------------------------------|

d|---------------------------|----------------------|
a|-3-------------------------|----------------------|
f|-2-------------3-----------|----------------------|
c|-0------3------3------5----|----3------7----------|
g|-0------3------1------5----|----3------7----------|
C|-0------3-------------5----|----3------7----------|

Bridge Into Solo:

d|--------------------|--------------------|--------------------|
a|--------------------|--------------------|--------------------|
f|--7--5--------------|--7--5--------------|--7--5--------------|
c|--7--5--7--5--3--0--|--7--5--7--5--3--0--|--7--5--7--5--3--0--|
g|--5--3--7--5--3--0--|--5--3--7--5--3--0--|--5--3--7--5--3--0--|
C|--------7--5--3--0--|--------7--5--3--0--|--------7--5--3--0--|

Rhythm Under Solo:

d|--------------------------------------------------|
a|-3------------------------------------------------|
f|-2-------------3------5---------------------------|
c|-0------3------3------5---------------------------|
g|-0------3------1------3---------------------------|
C|-0------3-----------------------------------------|

d|---------------------------|----------------------|
a|-3-------------------------|----------------------|
f|-2-------------3-----------|----------------------|
c|-0------3------3------5----|----3------7----------|
g|-0------3------1------5----|----3------7----------|
C|-0------3-------------5----|----3------7----------|


Bridge:

Rhythm Part:

Light Distortion:
3 Times:
       PM-----------|   PM-|  PM---------------------|
d|---------------------------------------------------|
a|---------------------------------------------------|
f|---------------------------------------------------|
c|--------------------------------3p0----------------|
g|--------------------3p0---5p0----------------------|
C|-0----0-0-0-0-0-0-------0-----0--------------------|

4th Time:
       PM--------------------------------------------|
d|---------------------------------------------------|
a|---------------------------------------------------|
f|-----------------------5-5-5-5-5-------------------|
c|-----------------------5-5-5-5-5-------------------|
g|-----------------------3-3-3-3-3-------------------|
C|-0----0-0-0-0-0-0----------------------------------|

Lead Part:

Six Times:
d|--------------------------------------------------|
a|--------------------------------------------------|
f|---10--12/13-12-10h12p10----10--------------------|
c|-------------------------12-----12\---------------|
g|--------------------------------------------------|
C|--------------------------------------------------|

       Extreme Vibrato
d|--------------------------------------------------|
a|-----15~~15~~15~~15~~15~~15~~---------------------|
f|--------------------------------------------------|
c|--------------------------------------------------|
g|--------------------------------------------------|
C|---------------------------------xxxxx\\\\\\\-----|
                                   Pick Scrape
Chorus:

d|--------------------------------------------------|
a|-3------------------------------------------------|
f|-2-------------3------5---------------------------|
c|-0------3------3------5---------------------------|
g|-0------3------1------3---------------------------|
C|-0------3-----------------------------------------|

d|---------------------------|----------------------|
a|-3-------------------------|----------------------|
f|-2-------------3-----------|----------------------|
c|-0------3------3------5----|----3------7----------|
g|-0------3------1------5----|----3------7----------|
C|-0------3-------------5----|----3------7----------|

2 Times:
       PM-----------|   PM-|  PM----------------------|
d|------------------------------------|---------------|
a|------------------------------------|---------------|
f|------------------------------------|---------------|
c|--------------------------------3p0-|-3---7---------|
g|--------------------3p0---5p0-------|-3---7---------|
C|-0----0-0-0-0-0-0-------0-----0-----|-3---7---------|

Outro:

3 Times:
       PM-----------|   PM-|  PM---------------------|
d|---------------------------------------------------|
a|---------------------------------------------------|
f|---------------------------------------------------|
c|--------------------------------3p0----------------|
g|--------------------3p0---5p0----------------------|
C|-0----0-0-0-0-0-0-------0-----0--------------------|

4th Time:
       PM--------------------------------------------|
d|---------------------------------------------------|
a|---------------------------------------------------|
f|-----------------------5-5-5-5-5-------------------|
c|-----------------------5-5-5-5-5-------------------|
g|-----------------------3-3-3-3-3-------------------|
C|-0----0-0-0-0-0-0----------------------------------|


Next Riff:

Three Times:
       PM--------------------------------------------|
d|---------------------------------------------------|
a|---------------------------------------------------|
f|----------------------5---5----7-------------------|
c|----------------------5---5----7-------------------|
g|----------------------3---3----5-------------------|
C|-0----0-0-0-0-0-0----------------------------------|

       PM--------------------------------------------|
d|---------------------------------------------------|
a|---------------------------------------------------|
f|---------------------------------------------------|
c|---------------------------------------------------|
g|----------------------5--3-----------3-------------|
C|-0----0-0-0-0-0-0-----------5--3--5----------------|

Then:

Four Times:
       PM--------------------------------------------|
d|---------------------------------------------------|
a|---------------------------------------------------|
f|----------------------5---5----7-------------------|
c|----------------------5---5----7-------------------|
g|----------------------3---3----5-------------------|
C|-0----0-0-0-0-0-0----------------------------------|

Last Riff:

d|--------------------|--------------------|--------------------|
a|--------------------|--------------------|--------------------|
f|--7--5--------------|--7--5--------------|--7--5--------------|
c|--7--5--7--5--3--0--|--7--5--7--5--3--0--|--7--5--7--5--3--0--|
g|--5--3--7--5--3--0--|--5--3--7--5--3--0--|--5--3--7--5--3--0--|
C|--------7--5--3--0--|--------7--5--3--0--|--------7--5--3--0--|
Tap to rate this tab
# A B C D E F G H I J K L M N O P Q R S T U V W X Y Z