Song name
# A B C D E F G H I J K L M N O P Q R S T U V W X Y Z

Black Stone Cherry - Backwoods Gold tab

RATE and COMMENT!

Tunung = Db / C#

INTRO

Add wah effect or pinch harmonics (play these 2 parts in whatever order cuz they sound 
same lol - - mix it up)

eb -----------------------------------------------|
Bb -----------------------------------------------|
Gb –----------------------------------------------|
Db –----------------------------------------------|
Ab –----------------------------------------------|
Db --10p0-12p0-12p0-10h12p0-12p0-10h12p0-10p0-----| x2


eb ---------------------------------------------|
Bb ---------------------------------------------|
Gb –--------------------------------------------|
Db –--------------------------------------------|
Ab –3p0-5p0-5p0-3h5p0-5p0-3h5p0-3p0-------------|
Db ---------------------------------------------| x2

VERSE

eb ---------------------------------------------|
Bb ---------------------------------------------|
Gb –--------------------------------------------|
Db –000-00-00-00-000--888-88-88-88--10-10~------|
Ab –000-00-00-00-000--888-88-88-88--10-10~------|
Db -000-00-00-00-000--888-88-88-88--10-10~------|
  PM... .. .. .. ...  ... .. .. ..

       (12's)
eb --------------------------------------------------------|
Bb --------------------------------------------------------|
Gb –-------------------------------------------------------|
Db –121212-1212-1212-1212-121212---555-55-55-55--3-3~------|
Ab –121212-1212-1212-1212-121212---555-55-55-55--3-3~------|
Db -121212-1212-1212-1212-121212---555-55-55-55--3-3~------|
  PM . . .  . .  . .  . .  . . .   ... .. .. ..

eb ---------------------------------------------|
Bb ---------------------------------------------|
Gb –--------------------------------------------|
Db –000-00-00-00-000--888-x8-x8-x8-x8h10~-------|
Ab –000-00-00-00-000--888-x8-x8-x8-x8-----------|
Db -000-00-00-00-000--888-x8-x8-x8-x8-----------|
  PM... .. .. .. ...

      (12's)
eb --------------------------------------------------------|
Bb --------------------------------------------------------|
Gb –-------------------------------------------------------|
Db –121212-1212-1212-1212-121212---555-x5-x5-x5--3-3~------|
Ab –121212-1212-1212-1212-121212---555-x5-x5-x5--3-3~------|
Db -121212-1212-1212-1212-121212---555-x5-x5-x5--3-3~------|
  PM . . .  . .  . .  . .  . . .


PRECHORUS

eb --------------------------------/---------------------|
Bb --------------------------------/---------------------|
Gb –-------------------------------/---------------------|
Db –-------------------------------/--------------5~-----|
Ab –3p0-5p0-5p0-3h5p0-5p0-3h5p0-3--/---3~s5-3~s5--5~-----|
Db --------------------------------/---------------------|
                                x3


CHORUS

eb ---------------------------------------|
Bb ---------------------------------------|
Gb –--------2--3--------------------------|
Db –0-------2--3-----3-------5-5----------|
Ab –0-------0--1-----3-------5-5----------|
Db -0----------------3-------5-5----------| 1, 3
   "Hot... to hell.. Angels  Rollin'.."
   "Hot... to hell.. Angels  Rollin'.."

eb ---------------------------------------|
Bb ---------------------------------------|
Gb –--------2--3----5---------------------|
Db –0-------2--3----5--------5-5----------|
Ab –0-------0--1----3--------5-5----------|
Db -0------------------------5-5----------| 2, 4
   "I ...wanna go...Hill...  flowin'..."
  "take..back home..Mary...  growin'..."

PREVERSE

eb --------------------------------/-------------------|
Bb --------------------------------/-------------------|
Gb –-------------------------------/-------------------|
Db –-------------------------------/------------3**----|
Ab –3p0-5p0-5p0-3h5p0-5p0-3h5p0-3--/--3h5-3-0----------|
Db --------------------------------/----------5--------|


REPEAT VERSE

THEN PRECHORUS

THEN CHORUS


BRIDGE

eb ----------------------------/-------------------------|
Bb ----------------------------/-------------------------|
Gb –---------------------------/-------------------------|
Db –------3*-------------------/--------3*-----------3*--|
Ab –0h3h5----5*----------------/--0h3h5----5*------------|
Db --------------0-0-0-3h5p3p0-/---------------0-0-0-----| x2
  PM             . . .                         . . .


SOLO - I do it with some improvisatioon along these kinda lines (sorry about this 
part of the tab)

eb --------------------------------------------------------|
Bb -------------------------------13-----------------------|
Gb –-------------10h12-10*--12b14----b14-r12p10-12*-10*----|
Db –-------10h12-------------------------------------------|
Ab –-10h12-------------------------------------------------|
Db --------------------------------------------------------|


eb -------------------------------------------------------------|
Bb -------11p10-------13p10-------11p10-------13p10-------------|
Gb –10s12-------12p10-------12p10-------12p10-------12p10-------|
Db –------------------------------------------------------------|
Ab –------------------------------------------------------------|
Db -------------------------------------------------------------|

eb ---------------------------------------------|
Bb ---------------------------------------------|
Gb –-12b14r12p10-12b14r12p10-12b14r12p10-12*~~--|
Db –--------------------------------------------|
Ab –--------------------------------------------|
Db ---------------------------------------------|


eb ----------------------------------------------------------------|
Bb ----------------------------------------------------------------|
Gb –-10*b12r10----------------10h12p10-----------------------------|
Db –-----------h12-12~--10h12----------12-10h12p10-----------------|
Ab –------------------------------------------------12-10h12p10~---|
Db ----------------------------------------------------------------|

eb ------------------------------------------------------------------------|
Bb -----------------------------------------10----13--10-------------------|
Gb –xx-10h12-12-12~-12p10-------------------12b14-----12b14r12p10--12**----|
Db –xx-10-----------------12p10-------10*----------------------------------|
Ab –----------------------------12p10--------------------------------------|
Db ------------------------------------------------------------------------|


REPEAT VERSE

REPEAT PRECHORUS LIKE THIS:

eb --------------------------------/---------------------|
Bb --------------------------------/---------------------|
Gb –-------------------------------/---------------------|
Db –-------------------------------/--------------3*-----|
Ab –3p0-5p0-5p0-3h5p0-5p0-3h5p0-3--/--s5~-3~-0-----------|
Db --------------------------------/-----------5~--------|
                                x3

REPEAT CHORUS

REPEAT BRIDGE


OUTRO
                                                        end on
eb -----------------------------/---------------------/---------|
Bb -----------------------------/---------------------/---------|
Gb –----------------------------/--add random solo----/---7-7---|
Db –----------------------------/--or epic riff here--/---7-7---|
Ab –5p3h5--7p5h7--8p7h8--10~~~~-/---------------------/---5-5---|
Db -----------------------------/---------------------/---------|
Tap to rate this tab
# A B C D E F G H I J K L M N O P Q R S T U V W X Y Z