Song name
# A B C D E F G H I J K L M N O P Q R S T U V W X Y Z

Black Stone Cherry - Sunrise tab

This is incomplete.  I welcome corrections and expansions.

A lot is going on in this song so I just put the main things so people can jam.

Intro and Verse Chords.  (generalized...still don't have the arppegios figured out)

D|---------------------------------------------------------------------------------|
A|---------------------------------------------------------------------------------|
F|---------------------------------------------------------------------------------|
C|------2--0--7--5-----------------------------------------------------------------|
G|------2--0--7--5-----------------------------------------------------------------|
C|------2--0--7--5-----------------------------------------------------------------|

Background lead lick

D|-------------------|
A|-------------------|
F|----12h14p12-------|
C|-------------14\---|  There's a lower end to this that I can't quite hear
G|-------------------|
C|-------------------|

Prechorus

D|----------------------------------------------------------------------------------|
A|----------------------------------------------------------------------------------|
F|----------------------------------------------------------------------------------|
C|------0h2-2-2-2-2---2p0-0-0-0-0-0-0-0-0---5h7-7-7-7-7---7p5-5-5-5-5-5-5-5-5-------|
G|------0h2-2-2-2-2---2p0-0-0-0-0-0-0-0-0---5h7-7-7-7-7---7p5-5-5-5-5-5-5-5-5-------|
C|------0h2-2-2-2-2---2p0-0-0-0-0-0-0-0-0---5h7-7-7-7-7---7p5-5-5-5-5-5-5-5-5-------|
            PM-----]      PM-------------]      PM---- ]      PM--------------------|

Chorus Chords  (I'm not 100% sure on this)

D|----2--3--2--0-----|
A|----3--3--3--2-----|
F|----2--0--2--2-----|
C|-------------------|
G|-------------------|
C|-------------------|

      D  G  D  A

Post Solo Chords

D|-------------------|
A|-------------------|
F|-------------------|
C|--9--5--2--7-------|
G|--9--5--2--7-------|
C|--9--5--2--7-------|
Tap to rate this tab
# A B C D E F G H I J K L M N O P Q R S T U V W X Y Z