Song name
# A B C D E F G H I J K L M N O P Q R S T U V W X Y Z

Black Stone Cherry - Sunrise tab

______________________________- S U N R I S E -_____________________________

                                     by
                              Black Stone Chery


Please note: this is not the complete tab of this song, I've just written
down the main parts but I hope it helps you !!

Tuning: Drop C -> CGCFAD

... INTRO + VERS ...........................................................
(sorry, just found out the main chords)


00:11 - 00:33
=============

D|-----------|-----------|-----------|------------------||
A|-----------|-----------|-----------|------------------||
F|-----------|-----------|-----------|------------------||  play it
C|-1/3---1---|-6/8---6---|-1/3---1---|-6/8---6--x-x-x-x-||    2x
G|-1/3---1---|-6/8---6---|-1/3---1---|-6/8---6--x-x-x-x-||
C|-1/3---1---|-6/8---6---|-1/3---1---|-6/8---6--x-x-x-x-||

00:45 - 00:56
=============

--> GUITAR #1
D|-----------------------------|-------------------------------||
A|-----------------------------|-------------------------------||
F|-----------------------------|-------------------------------||
C|-1/3-3-3-3\1-1-1-1-1-1-1-1---|-6/8-8-8-8\6-6-6-6-6-6-6-6-6---||
G|-1/3-3-3-3\1-1-1-1-1-1-1-1---|-6/8-8-8-8\6-6-6-6-6-6-6-6-6---||
C|-1/3-3-3-3\1-1-1-1-1-1-1-1---|-6/8-8-8-8\6-6-6-6-6-6-6-6-6---||
                                                                    play it
--> GUITAR #2                                                         2x
D|-1---------------------------|--6--------4-------------------||
A|-1---------------------------|--6--------4-------------------||
F|-x---------------------------|--x--------x-------------------||
C|-3---------------------------|--8--------6-------------------||
G|-3---------------------------|--8--------6-------------------||
C|-----------------------------|-------------------------------||


... CHORUS .................................................................


00:56 - 01:18
=============

play a clean and nice reggae-style! ;)

    Cm            G#          D#            Bb
D|--8--8----8-----4-4---4---|-11-11---11----6-6---6---||
A|--8--8----8-----4-4---4---|-11-11---11----6-6---6---||
F|--8--8----8-----5-5---5---|-12-12---12----7-7---7---||
C|-10-10---10-----6-6---6---|-13-13---13----8-8---8---||
G|-10-10---10-----6-6---6---|-13-13---13----8-8---8---||
C|--------------------------|-------------------------||

... SOLO Part 1 ............................................................


02:15 - 02:27
=============

use a little Whawha in this part!

D|-----------------------------------------------------------|
A|-16b18---16~--16p13-------16-------------------------------|
F|--------------------15b17----17rb15--15-13-15-13----13~~---|
C|-------------------------------------------------15--------|
G|-----------------------------------------------------------|
C|-----------------------------------------------------------|

----------------------------------------------||
----------------------------------------------||
----------------------------------------------||
--13/15--13---10p8\6-8~---13/15--13~~~--13\---||
----------------------------------------------||
----------------------------------------------||

___________________________________________________________________________

b  = bend
rb = release-bend
/  = slide up
\  = slide down
~  = vibrato
x  = mute this note
Tap to rate this tab
 
# A B C D E F G H I J K L M N O P Q R S T U V W X Y Z