Black Stone Cherry - We Are The Kings tab

--------------------------------------------------------------|
--------------------------------------------------------------|
--------------------------------------------------------------|
-------------------------------------------------------3------|
---5---3---5---3---5---3---5--------5---3---5---3---5----5----|
-00--0---0---0---0---0---0--------00--0---0---0---0---0-------|

--------------------------------------------------------------|
--------------------------------------------------------------|
--------------------------------------------------------------|
--------------------------------------------------------------|
---5---3---5---3---5---3---5-------5---3---5---3---5--12\-----|
-00--0---0---0---0---0---0-------00--0---0---0---0----12\-----|
Tap to rate this tab
 
# A B C D E F G H I J K L M N O P Q R S T U V W X Y Z