Song name
# A B C D E F G H I J K L M N O P Q R S T U V W X Y Z

Black Stone Cherry - You tab

Artist:  Black Stone Cherry
Song:  You (solo)
Tabbed By: Matthew Moore
Tuning:  standard tuning, Tuned down a full step

Check out my other Black Stone Cherry tabs and rate please:
Stop Runnin'
Big City Lights (solo)

|------------5-------------------------------------------------------------|
|---------------8p5--------------------------------------------------------|
|--7b9--7b9----------7b9r7p5---------7b9--7b9--7b9r7p5-----5---------------|
|-----------------------------7~~-----------------------7-----7\-------5h7-|
|-------------------------------------------------------------------7------|
|--------------------------------------------------------------------------|

|----------------------------------8---------------------------------------|
|--------------------8h10p8-----8-----10p8-----8---------------------------|
|--5h7p5-----5--7/9----------9--------------9-----9\7--5-----7--7p5-----5--|
|---------7-----------------------------------------------7----------7-----|
|--------------------------------------------------------------------------|
|--------------------------------------------------------------------------|

|--------------------------------------------------------------------------|
|-------------------------------10h13~~---------10h13/15--------13~~~------|
|------------------------/9h12-----------/9h12--------------14-------------|
|--7p5--7p5-----5----------------------------------------------------------|
|------------7-----7p5-----------------------------------------------------|
|--------------------------------------------------------------------------|

|---------15----------------------------------------17p15\12--15p12--------|
|--15b17------15b17r15--15b17--17r15p13------13~--------------------15b16--|
|----------------------------------------14--------------------------------|
|--------------------------------------------------------------------------|
|--------------------------------------------------------------------------|
|--------------------------------------------------------------------------|

|--12----------------------------------------------------------------------|
|-----15p13-15p13----15----13----------------------------------------------|
|-----------------14----14----14p12----12-----------------------------14h17|
|-----------------------------------14----14p12----12-----------14h17------|
|-----------------------------------------------15----15--15/17------------|
|--------------------------------------------------------------------------|

|---------------------15--------------17--20p17----20b22--20~~~~-----------|
|--15-----------15h17----17p15--17/20-----------20-------------------------|
|-----17p14--17------------------------------------------------------------|
|--------------------------------------------------------------------------|
|--------------------------------------------------------------------------|
|--------------------------------------------------------------------------|
Tap to rate this tab
 
# A B C D E F G H I J K L M N O P Q R S T U V W X Y Z