Song name
# A B C D E F G H I J K L M N O P Q R S T U V W X Y Z

Black Stone Cherry - Big City Lights tab

Artist:  Black Stone Cherry
Tabbed By: Matthew Moore
Tuning: Drop C#  (Drop D tuned Half a step down)

Check out my other tabs from Black stone cherry and rate them please:
Stop Runnin'
You (Solo)
        

|--------------------------------------------------------------------------|
|-----------------10~~-----------------10b12--10~~---7p5--7~--5~-----------|
|-------6h7--9p7-------------6h7--9p7-----------------------------6b7r6p4--|
|---/7-------------------/7------------------------------------------------|
|--------------------------------------------------------------------------|
|--------------------------------------------------------------------------|

|---------12-----12-----12-----12-----12-----------------------------------|
|---5~~---12b14--12b14--12b14--12b14--14r12p10-----10h12-----10h12-----10~~|
|-----------------------------------------------9---------9---------9------|
|--------------------------------------------------------------------------|
|--------------------------------------------------------------------------|
|--------------------------------------------------------------------------|

|--------------------------------------------------------------------------|
|--------------------------------------------------------------------------|
|---11p9------9------------------------------------------------------------|
|---------11-----11\9p7--9b11r9p7h9~~---9b10r9--7~~~-----------------------|
|--------------------------------------------------------------------------|
|--------------------------------------------------------------------------|

Tap to rate this tab
 
# A B C D E F G H I J K L M N O P Q R S T U V W X Y Z