Song name
# A B C D E F G H I J K L M N O P Q R S T U V W X Y Z

Black Stone Cherry - Blame It On The Boom Boom tab

-----------------------|
-----------------------|
-----------------------|intro/verse
-----------------------|
--3-5-3----------------|
--------3(4)--0-3(4)-0-|

pre chorus
----------------------|
----------------------|
----------------------|
-0-3-5-7-5-3-0---0----|
---------------3------|
----------------------|
hey, hey, hey etc.....


chorus
------------------------|
-3333-------------------|
-2222-----------55------|
-0000-5555-3333-55-5--5-|X2
-0000-5555-3333-33-5--5-|
-0000-5555-3333----5--5-|

------------------------|
------------------------|
-2222-5555--------------|
-2222-5555-5---5--------|
-0000-3333-5---5--------|
-----------5---5--------|

verse/chorus riff
pre chorus
chorus

-
-
-
-cant be bothered to tab that its easy to figure it out
-
-

verse
pre choruse
chorus
verse riff with lead
ending power chord G5

--------|
--------|
--------|
--5--5--|
--5--5--|
--5--5--|
Tap to rate this tab
 
# A B C D E F G H I J K L M N O P Q R S T U V W X Y Z