Black Stone Cherry - Sunrise tab

-------------------------------------------------------------------------------
		 SONG NAME: Sunrise - BAND NAME: Black Stone Cherry
-------------------------------------------------------------------------------
Tabbed by: Foxhunter1994

Tuning: Drop C

e|----16b-16--------16-------------------------------------------------------|
B|-----------15/17------17p15\13-15p13-----13~~~-----------------------------|
G|-------------------------------------15----------15------------------------|
D|---------------------------------------------------------------------------|
A|---------------------------------------------------------------------------|
E|---------------------------------------------------------------------------|

e|---------------------------------------------------------------------------|
B|---------------------------------------------------------------------------|
G|---------------------------------------------------------------------------|
D|--13/15----13h15--13----/8---13/15--13\------------------------------------|
A|---------------------------------------------------------------------------|
E|---------------------------------------------------------------------------|

e|---------------------------------------------------------------------------|
B|------------------------------16h18-20-18-16h18p16-15----------------------|
G|--------------------15---------------------------------20--17--------------|
D|----15---15---15h17--------------------------------------------------------|
A|---------------------------------------------------------------------------|
E|---------------------------------------------------------------------------|

e|--------------------------18-----------------------------------------------|
B|---21--20--18--20---18h20--------------------------------------------------|
G|---------------------------------------------------------------------------|
D|---------------------------------------------------------------------------|
A|---------------------------------------------------------------------------|
E|---------------------------------------------------------------------------|




************************************

| /   slide up
| \   slide down
| h   hammer-on
| p   pull-off
| ~   vibrato
| +   harmonic
| x   Mute note
| b   Bend
| pb  Pre-bend
| br  Bend release
| pbr Pre-bend release
| brb Bend release bend

************************************
Tap to rate this tab
 
# A B C D E F G H I J K L M N O P Q R S T U V W X Y Z