Black Stone Cherry - Cowboys tab

-I don't normaly figure out songs myself, but i got really bored of waiting for someone 
else to tab this.
-I'm definately not 100% sure about a lot of this, but it's a start. I would very much 
apprichiate comments and corrections.
-I haven't done the solo, but i could try if anyone commented saying they want me to. I 
prefer to improvise my own, use D pentatonic (technicly C# because of the tuning).


Main riff (fairly confident about this bit):
D#|-on intro-|-----------------------------|
A#|----------|-----------------------------|
F#|----------|-(7-5-7)---------------------|
C#|----------|-----------------------------|
G#|----------|--5p3-5----------------------|
C#|-3-5-3-5--|----------5p3-3---5br--3-5br-|


Verse:
D#|------------------------------------------------------------------------|
A#|------------------------------------------------------------------------|
F#|------------------------------------------------------------------------|
C#|-3-0-3-0------------------3-0-3-0---------------------------------------|
G#|-3-0-3-0------------------3-0-3-0---------------------------------------|
C#|-3-0-3-0-5p3-5p3-5-3------3-0-3-0-5p3-5p3-5-----------------------------|

Chorus:
-i think both guitarists play different things, this might be one of the parts, if 
anyone knows the other please comment with it
-I have put the lyrics underneath to show where 'chord changes' are
-Listen to song for strumming pattern

D#|---------------------------------------------------------------------|
A#|---------------------------------------------------------------------|
F#|-5--------7--------5--------7--------5--------7--------5-------------|
C#|-x--------x--------x--------x--------x--------x--------x-------------|
G#|-3--------5--------3--------5--------3--------5--------3-------------|
C#|---------------------------------------------------------------------|
  where have all the cowboys gone that made the west so strong

D#|---------------------------------------------------------------------|
A#|---------------------------------------------------------------------|
F#|-5--------7--------5--------7--------5--------7----------------------|
C#|-x--------x--------x--------x--------x--------x--------5-------------|
G#|-3--------5--------3--------5--------3--------5--------5-------------|
C#|-------------------------------------------------------5-------------|
    on a trail thats long long gone singing their cowboy song


The riff just before the solo(and at the end):
D#|----------------------------------------------------------------------|
A#|----------------------------------------------------------------------|
F#|----------------------------------------------------------------------|
C#|----------------------------------------------------------------------|
G#|-5p3-5p3-----------------(3-3h5-3-3h5)--------------------------------|
C#|---------5p3-5p3-3p0-3p0----------------------------------------------|
Tap to rate this tab
 
# A B C D E F G H I J K L M N O P Q R S T U V W X Y Z