Song name
# A B C D E F G H I J K L M N O P Q R S T U V W X Y Z

Black Stone Cherry - Cant You See tab

Artist: Black Stone Cherry
Song: Can't You See
Album: Between the Devil and the Deep Blue See
Tabbed By: Matthew Moore
Email:mcm37@live.Missouristate.edu

Tuning: Drop D


One of my favorite songs from the new black stone cherry album, a great cover.  This is 
just the intro, I'll work on the whole song unless someone beats me with a good tab.  
This may not be 100% but it's pretty close.

Check out my other songs by Black Stone Cherry:
Big City Lights Solo
You Solo
Stop Runnin' Solo

|--------------------------------------------------------------------------|
|--------------------------------------------------------------------------|
|--------------------------------------------------------------------------|
|-----------0-------------0---4/6--4-----5p3-----3------5p3-----3--2h3--2--|
|---3h5-----------3h5-----------------3-------3------3-------3-------------|
|-0------0-----0-------0---------------------------------------------------|

|--------------------------------------------------------------------------|
|--------------------------------------------------------------------------|
|--------------------------------------------------------------------------|
|------------0-------------0-------0--------------0-------------0--2h3p2---|
|----8p5-----------8p5--------------------3h5-----------3h5---------------3|
|-5-------5-----5-------5-----5h7------0-------0-----0-------0-------------|
Tap to rate this tab
 
# A B C D E F G H I J K L M N O P Q R S T U V W X Y Z