Black Stone Cherry - Shake tab

--------------------------------------------------------------------------
Black Stone Cherry, 'SHAKE' (Between the Devil and the Deep Blue Sea) 2011
--------------------------------------------------------------------------

-Tabbed by Alex Johnston (June 2011) - email: 3200030@live.aucb.ac.uk

Track from their new record- go check it out! I've tabbed the main riffs/licks here in 
order of appearance - not tabbed the whole song but you can piece together from what I 
have done here hopefully (also can't play/tab part of the intro and the solo so that's not here).
It's a fun track to play so hope you guys can get some fun out of it too! An 
errors/additions feel free to email me.
Alex

----------------------------------------------------------------------


(CGCFAD)


-INTRO-

Gtr.1
|---------------------------------------------------------------------| (x3)
|----13b---13b---13b---13b---13b---13b---13b---13b--------------------|
|---------------------------------------------------------------------|
|---------------------------------------------------------------------|
|---------------------------------------------------------------------|
|---------------------------------------------------------------------|

Gtr.2 (comes with second bar of Gtr.1)
|---------------------------------------------------------------------|
|---------------------------------------------------------------------|
|---------------------------(COULDN'T TAB)----------------------------|
|---------------------------------------------------------------------|
|---------------------------------------------------------------------|
|---------------------------------------------------------------------|

|---------------------------------------------------------------------|
|---------------------------------------------------------------------|
|------------(COULDN'T TAB)-------------------------------------------|
|----------------------------------------------5--3-----3-------------|
|----------------------------------------------------5----------------|
|---------------------------------------------------------------------|


-MAIN-

Gtr.1
|---------------------------------------------------------------------|
|---------------------------------------------------------------------|
|---------------------------------------------------------------------|
|----0---3--4--5--5-3---3----0---3--4--5--5-3---3----22225555---------|
|----0---3--4--5------5------0---3--4--5------5------22225555---------|
|----0---3--4--5-------------0---3--4--5-------------22225555---------|

Gtr.2
|---------------------------------------------------------------------|
|--------13b13~15~---------------13b13~15~----------------------------|
|---------------------------------------------------------------------|
|---------------------------------------------------------------------|
|---------------------------------------------------------------------|
|---------------------------------------------------------------------|


Gtr.1
|---------------------------------------------------------------------|
|---------------------------------------------------------------------|
|---------------------------------------------------------------------|
|----0---3--4--5--5-3---3----3-0--0-0-0-0--3-0--0-0-0-0---------------|
|----0---3--4--5------5------3-0--0-0-0-0--3-0--0-0-0-0---------------|
|----0---3--4--5-------------3-0--0-0-0-0--3-0--0-0-0-0---------------|

Gtr.2
|---------------------------------------------------------------------|
|--------13b13~15~----------------------------------------------------|
|---------------------------------------------------------------------|
|-------------------------------------------------------3-------------|
|-------------------------------------------------2\3-5---5h-5--------|
|---------------------------------------------------------------------|


Gtr.1
|---------------------------------------------------------------------|
|---------------------------------------------------------------------|
|---------------------------------------------------------------------|
|----3-0--0-0-0-0--3-0--0-0-0-0---------------------------------------|
|----3-0--0-0-0-0--3-0--0-0-0-0---------------------------------------|
|----3-0--0-0-0-0--3-0--0-0-0-0---------------------------------------|

Gtr.2
|---------------------------------------------------------------------|
|---------------------------------------------------------------------|
|---------------------------------------------------------------------|
|-------------------------5(br)p3-5p3---------------------------------|
|------------------------------------5~-------------------------------|
|---------------------------------------------------------------------|


Gtr.1
|---------------------------------------------------------------------|
|---------------------------------------------------------------------|
|---------------------------------------------------------------------|
|----------------------------------------10--1212--15-15-15-12--------|
|----------------------------------------10--1212--15-15-15-12--------|
|----------------------------------------10--1212--15-15-15-12--------|
'But California loves.....'


************************************

| /   slide up
| \   slide down
| h   hammer-on
| p   pull-off
| ~   vibrato
| +   harmonic
| x   Mute note
| b   Bend
| pb  Pre-bend
| br  Bend release
| pbr Pre-bend release
| brb Bend release bend

************************************
Tap to rate this tab
 
# A B C D E F G H I J K L M N O P Q R S T U V W X Y Z