Song name
# A B C D E F G H I J K L M N O P Q R S T U V W X Y Z

Black Stone Cherry - White Trash Millionaire tab

Intro
Guitar one (wah wah effect)
|------------------------------------------------------------------------|
|-15-13------------------------------------13bu---------------13bu--13bu-|
|-x--x--14-12-7~---------------------------------------------------------|
|-12-10-x--x--x---------------------------12----12-12-12-12-10----10-----|
|-------12-10-5~---------------------------------------------------------|
|------------------------------------------------------------------------|
Guitar two (lightly distorted)
|-----------------------------------------------------------------------------|
|------------------------------------------------------------------3----------|
|------------------------------------------------------------------2-5-2--2---|
|-0--0--0--0--0--3-0---------0--3-0----------0--3-0-----5-3-0--3-0-0-5-2--2-3~|
|-0--0--0--0--0--3-0-5p3-----0--3-0-5p3------0--3-0-----5-3-0--3-0---3-0--0-3~|
|-0--0--0--0--0--3-0-----5-3-0--3-0-----5-3*-0--3-0-----5-3-0--3-0----------3~|

Verse one
Both guitars (lightly distorted)
|-----------|
|-----------|
|-----------|
|-3-5-3-5-0-| x4
|-3-5-3-5-0-|
|-3-5-3-5-0-|

Chorus one
Guitar one (wah wah, quieter than guitar two)
|---------------------------------------------------------------------|
|-9-9-9-9-9-9-9-9-9-9-9-9-9-9-9-9-9-9-9-9-9-9-9-9-9-9-9-9-------------|
|-x-x-x-x-x-x-x-x-x-x-x-x-x-x-x-x-x-x-x-x-x-x-x-x-x-x-x-x-------------|
|-7-7-7-7-7-7-7-7-7-7-7-7-7-7-7-7-7-7-7-7-7-7-7-7-7-7-7-7-7p5---5-----| x2
|-------------------------------------------------------------8---8-5-|
|---------------------------------------------------------------------|
Guitar two (lightly distorted)
                                                           1st time    2nd time
|---------------------------------------------------------|-----------|---------|
|---------------------------------------------------------|-----------|---------|
|-----------------5-5-5-5-5-5-5-5-------------------------|---5-------|---------|
|-0-0-0-0-0-0-0-0-5-5-5-5-5-5-5-5-5-5-5-5-5-5-5-5-3-3-3-3-|-3-5--3-5--|-3-3-3-3-| x2
|-0-0-0-0-0-0-0-0-3-3-3-3-3-3-3-3-5-5-5-5-5-5-5-5-3-3-3-3-|-3-3--3-5--|-3-3-3-3-|
|-0-0-0-0-0-0-0-0-----------------5-5-5-5-5-5-5-5-3-3-3-3-|-3----3-5--|-3-3-3-3-|

Pre-verse one
Guitar one (wah wah effect)
|------------------------------------------------------------------------|
|------------------------------------------------------------------------|
|-------------12bu--------------12bu--------------12bu----12bu-----------|
|-12-12-12-10-------12-12-12-10-------12-12-12-10------10------12p10-12~-|
|------------------------------------------------------------------------|
|------------------------------------------------------------------------|
Guitar two (slightly distorted)
|-----------------------------------------------------------------------------|
|------------------------------------------------------------------3----------|
|------------------------------------------------------------------2-5-2--2---|
|-0--0--0--0--0--3-0---------0--3-0----------0--3-0-----5-3-0--3-0-0-5-2--2-3~|
|-0--0--0--0--0--3-0-5p3-----0--3-0-5p3------0--3-0-----5-3-0--3-0---3-0--0-3~|
|-0--0--0--0--0--3-0-----5-3-0--3-0-----5-3*-0--3-0-----5-3-0--3-0----------3~|

Verse two
Both guitars (lightly distorted)
|-------------------|
|-------------------|
|-------------------|
|-3-5-3-5-0-0-0-0-0-| x2
|-3-5-3-5-0-0-0-0-0-|
|-3-5-3-5-0-0-0-0-0-|
Then its basically the same except the guitars alternate the last power chords,
Guitar one
|--------------------|
|--------------------|
|--------------------|
|-3-5-3-5-0-0-0-0-0--|
|-3-5-3-5-0-0-0-0-0--|
|-3-5-3-5-0-0-0-0-0--|
Guitar two
|--------------------|
|--------------------|
|--------------------|
|-3-5-3-5-0--0-0-0-0-|
|-3-5-3-5-0--0-0-0-0-|
|-3-5-3-5-0--0-0-0-0-|

Chorus two
Guitar one (wah wah, quieter than guitar two)
|---------------------------------------------------------------------|
|-9-9-9-9-9-9-9-9-9-9-9-9-9-9-9-9-9-9-9-9-9-9-9-9-9-9-9-9-------------|
|-x-x-x-x-x-x-x-x-x-x-x-x-x-x-x-x-x-x-x-x-x-x-x-x-x-x-x-x-------------|
|-7-7-7-7-7-7-7-7-7-7-7-7-7-7-7-7-7-7-7-7-7-7-7-7-7-7-7-7-7p5---5-----| x2
|-------------------------------------------------------------8---8-5-|
|---------------------------------------------------------------------|
Guitar two (lightly distorted)
                                                           1st time    2nd time
|---------------------------------------------------------|-----------|---------|
|---------------------------------------------------------|-----------|---------|
|-----------------5-5-5-5-5-5-5-5-------------------------|---5-------|---------|
|-0-0-0-0-0-0-0-0-5-5-5-5-5-5-5-5-5-5-5-5-5-5-5-5-3-3-3-3-|-3-5--3-5--|-3-3-3-3-| x2
|-0-0-0-0-0-0-0-0-3-3-3-3-3-3-3-3-5-5-5-5-5-5-5-5-3-3-3-3-|-3-3--3-5--|-3-3-3-3-|
|-0-0-0-0-0-0-0-0-----------------5-5-5-5-5-5-5-5-3-3-3-3-|-3----3-5--|-3-3-3-3-|

Solo
Guitar two (slightly distorted)
|-----------------------------------|
|-----------------------------------|
|-5-7---4-5---2-3-------------------|
|-5-7---4-5---2-3---3-3-3-3-5-5-5-5-|
|-3-5---2-3---0-1---3-3-3-3-5-5-5-5-|
|-------------------3-3-3-3-5-5-5-5-|
Guitar one (wah wah effect)
|---------------------------------------|
|-----------------------------------15--|
|-12bu-10~-12bu-10~--12bu-10~-----------|
|-----------------------------12p10-----|
|---------------------------------------|
|---------------------------------------|

|---------------------------------------|
|--------------------15p13h15~-15p13h15-|
|-12bu-10~-12bu-10~---------------------|
|---------------------------------------|
|---------------------------------------|
|---------------------------------------|

|-15bup13-15bup13------------15bup13-15bup13--------|
|-----------------15-13-15~------------------15-15~-|
|---------------------------------------------------|
|---------------------------------------------------|
|---------------------------------------------------|
|---------------------------------------------------|

|-10---------10---------10---------10---------/17-13-----13--/17-13-----13-|
|----10p8-------10p8-------10p8-------10p8------------15-------------15----|
|---------10---------10---------10---------10------------------------------|
|--------------------------------------------------------------------------|
|--------------------------------------------------------------------------|
|--------------------------------------------------------------------------|

|-----8----8-10~-8----8-----8----8--10~-10p8----10p8-----10p8----10p8------|
|-10~---10---------10---10~---10-------------10------10~------10------10bu-|
|--------------------------------------------------------------------------|
|--------------------------------------------------------------------------|
|--------------------------------------------------------------------------|
|--------------------------------------------------------------------------|

|-10-8----8-------------------------------------|
|------10---10-8----8-10-8-----------10---------|
|----------------10--------10~--7-10----10------|
|------------------------------------------8-7~-|
|-----------------------------------------------|
|-----------------------------------------------|

Bridge
Both guitars (slightly distorted)
|-------------------------------------|
|-------------------------------------|
|-5-7---5-7---5-7---5-5-5-5-5-5-5-5-5-|
|-5-7---5-7---5-7---5-5-5-5-5-5-5-5-5-|
|-3-5---3-5---3-5---3-3-3-3-3-3-3-3-3-|
|-------------------------------------|

Final chorus

Guitar one (wah wah, quieter than guitar two)
|---------------------------------------------------------------------|
|-9-9-9-9-9-9-9-9-9-9-9-9-9-9-9-9-9-9-9-9-9-9-9-9-9-9-9-9-------------|
|-x-x-x-x-x-x-x-x-x-x-x-x-x-x-x-x-x-x-x-x-x-x-x-x-x-x-x-x-------------|
|-7-7-7-7-7-7-7-7-7-7-7-7-7-7-7-7-7-7-7-7-7-7-7-7-7-7-7-7-7p5---5-----| x2
|-------------------------------------------------------------8---8-5-|
|---------------------------------------------------------------------|
Guitar two (lightly distorted)
                                                           1st time    2nd time
|---------------------------------------------------------|-----------|---------|
|---------------------------------------------------------|-----------|---------|
|-----------------5-5-5-5-5-5-5-5-------------------------|---5-------|---------|
|-0-0-0-0-0-0-0-0-5-5-5-5-5-5-5-5-5-5-5-5-5-5-5-5-3-3-3-3-|-3-5--3-5--|-3-3-3-3-| x2
|-0-0-0-0-0-0-0-0-3-3-3-3-3-3-3-3-5-5-5-5-5-5-5-5-3-3-3-3-|-3-3--3-5--|-3-3-3-3-|
|-0-0-0-0-0-0-0-0-----------------5-5-5-5-5-5-5-5-3-3-3-3-|-3----3-5--|-3-3-3-3-|

Guitar one
|--------------------------------------------------|
|-/15-15-15-15-15-15-15-15-17-17-17-17-17-17-17-17-|
|--x--x--x--x--x--x--x--x--x--x--x--x--x--x--x--x--|
|-/12-12-12-12-12-12-12-12-14-14-14-14-14-14-14-14-|
|--------------------------------------------------|
|--------------------------------------------------|

|--------------------------------------------------|
|-18-18-18-18-20-20-20-20-18-18-18-18-17-17-17-17--|
|-x--x--x--x--x--x--x--x--x--x--x--x--x--x--x--x---|
|-15-15-15-15-17-17-17-17-15-15-15-15-14-14-14-14--|
|--------------------------------------------------|
|--------------------------------------------------|

|--17-15----------------15-15-15-15-17-17-15-15-17-17-20-20-|
|--------18-15-15-15-15-------------------------------------|
|-
|-
|-
|-

|-17-17-17-15-15-15-17-17-17-20-20-20-20-20-20-22-22-22-22-22-22-22-22-22-22-22-22-22-22-22-22-|
|----------------------------------------------------------------------------------------------|
|----------------------------------------------------------------------------------------------|
|----------------------------------------------------------------------------------------------|
|----------------------------------------------------------------------------------------------|
|----------------------------------------------------------------------------------------------|
Guitar two (lightly distorted)
                                                           3rd time          4th time
|---------------------------------------------------------|-----------------|---------|
|---------------------------------------------------------|-----------------|---------|
|-----------------5-5-5-5-5-5-5-5-------------------------|-----------------|---------|
|-0-0-0-0-0-0-0-0-5-5-5-5-5-5-5-5-5-5-5-5-5-5-5-5-3-3-3-3-|-----------------|-3-3-3-3-| x2
|-0-0-0-0-0-0-0-0-3-3-3-3-3-3-3-3-5-5-5-5-5-5-5-5-3-3-3-3-|-5p3---5p3---5p3-|-3-3-3-3-|
|-0-0-0-0-0-0-0-0-----------------5-5-5-5-5-5-5-5-3-3-3-3-|-----5-----5-----|-3-3-3-3-|

Outro
Guitar one (wah wah effect)
|------------------------------------------------------------------|
|--------------------13bu--------------13bu---------------13bu-13bu|
|------------------------------------------------------------------|
|------12-12-12-12-10----12-12-12-12-10-----12-12-12-12-10---------|
|------------------------------------------------------------------|
|------------------------------------------------------------------|

|------------------|
|-15-13------------|
|-x--x--14-12-7~~~-|
|-12-10-x--x--x----|
|-------12-10-5~~~-|
|------------------|
Guitar two (lightly distorted)
|--------------------------------------------------------------|
|---------------------------------------------------3----------|
|---------------------------------------------------2-5-2--2---|
|-3-0---------0--3-0----------0--3-0-----5-3-0--3-0-0-5-2--2-3~|
|-3-0-5p3-----0--3-0-5p3------0--3-0-----5-3-0--3-0---3-0--0-3~|
|-3-0-----5-3-0--3-0-----5-3*-0--3-0-----5-3-0--3-0----------3~|

|--------------|
|--------------|
|--------------|
|-0-0-0-0-0~~~-|
|-0-0-0-0-0~~~-|
|-0-0-0-0-0~~~-|

And then you're done :)
Pleeeease rate and comment and tell me i'm amazing and you love me because it will make 
me feel good about myself ^^
Tap to rate this tab
 
# A B C D E F G H I J K L M N O P Q R S T U V W X Y Z