Song name
# A B C D E F G H I J K L M N O P Q R S T U V W X Y Z

Black Stone Cherry - Cant You See tab

Can't You See by Black Stone Cherry
from Between The Devil And The Deep Blue Sea


INTRO/VERSE RIFF
Eb--------------------------------------------------------------------------|
Bb--------------------------------------------------------------------------|
Gb--------------------------------------------------------------------------|
Db-----------0-------------0---5/7--5-----5p3-----5------5p3-----3--2-------|
Ab---3h5-----------3h5-----------------3-------3------3-------3-------------|
Db-0------0-----0-------0---------------------------------------------------|

INTRO/VERSE RIFF cont.                               play above and below x4
Eb--------------------------------------------------------------------------|
Bb--------------------------------------------------------------------------|
Gb--------------------------------------------------------------------------|
Db----3p0-----0-----3p0-----0-------0--------------0-------------0--2h3p2---|
Ab-----------------------------------------3h5-----------3h5---------------3|
Db-5-------5-----5-------5-----5h7------0-------0-----0-------0-------------|


CHORUS                                                                                   x2
Eb----------------------------------------------------------------------------------------|
Bb----------------------------------------------------------------------------------------|
Gb----------------------------------------------------------------------------------------|
Db--12-12-12-12-12-12-12-12--10-10-10-10-10-10-10-10--5-5-5-5-5-5-5-5--3-0-0-3p0-3p0-0-0--|
Ab--12-12-12-12-12-12-12-12--10-10-10-10-10-10-10-10--5-5-5-5-5-5-5-5--3-0-0-3p0-3p0-0-0--|
Db--12-12-12-12-12-12-12-12--10-10-10-10-10-10-10-10--5-5-5-5-5-5-5-5--3-0-0-3p0-3p0-0-0--|

1:04
eb-----------------------------------------------------|
Bb-----------------------------------------------------|
Gb-----------------------------------------------------|
Db----------------------3~-----------------------------|
Ab--0-0-3p0-0-5p0-0-3p0-----0-0-3p0-0-5p0-0-3p0-3h5-3--|
Db--0-0-3p0-0-5p0-0-3p0-----0-0-3p0-0-5p0-0-3p0-3h5-3--|


2:21                                                                  x2
eb---------------------------------------------------------------------|
Bb---------------------------------------------------------------------|
Gb---------------------------------------------------------------------|
Db--------------5br--------------3-2-------------------000000003p0000--|
Ab--0-0--10-10-------0-0--10-10-------0-0--10-10--5-5------------------|
Db--0-0--10-10-------0-0--10-10-------0-0--10-10--5-5------------------|


OUTRO
eb------------------------------------------------------|
Bb------------------------------------------------------|
Gb------------------------------------------------------|
Db-----------------------3~-----------------------------|
Ab--0-0-3p0-0-5p0-0-3p0-----0-0-3p0-0-5p0-0-3p0-3h5-3~--|
Db--0-0-3p0-0-5p0-0-3p0-----0-0-3p0-0-5p0-0-3p0-3h5-3~--|


Any corrections please comment
Thanks
Tap to rate this tab
# A B C D E F G H I J K L M N O P Q R S T U V W X Y Z