Song name
# A B C D E F G H I J K L M N O P Q R S T U V W X Y Z

Black Stone Cherry - Please Come In tab

-------------------------------------------------------------------------------
                      Please come in - Black Stone fucking Cherry
-------------------------------------------------------------------------------


Tuning: 1/2 step down, the drop d


   Intro


e|---------------------------------------------------------------------------|
B|---------------------------------------------------------------------------|
G|--4--2h4p2p0-h2------------------------------------------------------------|
D|-------------------0--3--0---Repeat until singin starts----------5~--------|
A|-------------------0--3--0---------------------------------------5~--------|
E|-------------------0--3--0---------------------------------------5~--------|


     "I have looked...       "...no longer there"
e|---------------------------------------------------------------------------|
B|---------------------------------------------------------------------------|
G|---------------------------------------------------------------------------|
D|---5----5-5-5---------------5-5-5-5-5-5------------------------------------|
A|---5----5-5-5---------------5-5-5-5-5-5------------------------------------|
E|---5----5-5-5---------------5-5-5-5-5-5------------------------------------|
                              . . . .

     Repeat intro and verse until clean guitar comes, then play this

e|---------------------------------------------------------------------------|
B|---------------------------------------------------------------------------|
G|---------------------------------------------------------------------------|
D|---7~-----5~--(2 times)----5-5-5-5-5-5-------------------------------------|
A|---5~-----2~---------------2-2-2-2-2-2-------------------------------------|
E|---------------------------------------------------------------------------|
                             . . . .

   Chorus

e|---------------------------------------------------------------------------|
B|---------------------------------------------------------------------------|
G|---9--9--9--9-----4--4--4--4-----3--3--3--3--------------------------------| (These 
can be played as power chords also)
D|---8--8--8--8-----3--3--3--3-----2--2--2--2-----5--5--5--5-----------------|
A|---9--9--9--9-----4--4--4--4-----2--2--2--2-----5--5--5--5-----------------|
E|------------------------------------------------5--5--5--5-----------------|




REPEAT UNTIL...




     "If you looked out window and there's an angel there..."

e|---------------------------------------------------------------------------|
B|---------------------------------------------------------------------------|
G|---------------------------------------------------------------------------|
D|---9--9--9--9------0--0--0--0---(3 TIMES)----------------------------------|
A|---9--9--9--9------0--0--0--0----------------------------------------------|
E|---9--9--9--9------0--0--0--0----------------------------------------------|


     "With flowers..."              "...flowers in her hair"
e|---------------------------------------------------------------------------|
B|---------------------------------------------------------------------------|
G|---------------------------------------------------------------------------|
D|---2--2--2--2---------------------5--5--5--5-------------------------------|
A|---2--2--2--2---------------------5--5--5--5-------------------------------|
E|---2--2--2--2---------------------5--5--5--5-------------------------------|


      During solo
e|---------------------------------------------------------------------------|
B|---------------------------------------------------------------------------|
G|---------------------------------------------------------------------------|
D|---0--0--0--0----------------5-5-5-5---9-9-9-9---7-7-7-7---5~--------------|
A|---0--0--0--0---(2 TIMES)----5-5-5-5---9-9-9-9---7-7-7-7---5~--------------|
E|---0--0--0--0----------------5-5-5-5---9-9-9-9---7-7-7-7---5~--------------|



   Im missing both solos,acoustic guitar part after first solo, outro and a little lick 
but this was a pain in the ass to tab
   and now i'm sharing it with you.
   I tabbed it from here  http://www.youtube.com/watch?v=FHMWqMkM7DA
   I'll try to tab the rest of the song but i don't promise anything

   Im pretty much addicted to this band now
Tap to rate this tab
 
# A B C D E F G H I J K L M N O P Q R S T U V W X Y Z