Song name
# A B C D E F G H I J K L M N O P Q R S T U V W X Y Z

Black Stone Cherry - In My Blood tab

This is for a Good friend :)
Hope it helps!

I dropped the low E to a D.

Intro:

e-------------|------------|---------------|--------------|
b-------------|------------|---------------|--------------|
g-------------|----------- |---------------|--------------|
d-------------|------------|---------------|--------------|
a ---9-9-9-9--|--7-5-5-5--|--10-10-10-10--|--8-7-7-7------|
d ---0-0-0-0--|--7-7-7-7--|--10-10-10-10--|--8-8-8-8------|



Verse 1:
e------------|------------|---------------|--------------|
b------------|------------|---------------|--------------|
g------------|------------|---------------|--------------|
d------------|------------|---------------|--------------|
a---9-9-9-9--|--7-5-5-5--|--10-10-10-10--|--8-7-7-7------|
d---0-0-0-0--|--7-7-7-7--|--10-10-10-10--|--8-8-8-8------|


e------------|------------|---------------|--------------|
b------------|------------|---------------|--------------|
g------------|------------|---------------|--------------|
d------------|------------|---------------|--------------|
a---9-9-9-9--|--7-5-5-5--|--10-10-10-10--|--10-10-10-10--|
d---0-0-0-0--|--7-7-7-7--|--10-10-10-10--|--10-10-10-10--|      Play both bars twice.



Chorus:

 A        D sus2      G add9    D sus2
e----0----|----0----|----X----|----0----|
b----2----|----3----|----X----|----3----|
g----2----|----2----|----4----|----2----|
d----2----|----0----|----5----|----0----|
a----0----|----X----|----5----|----X----|
d----X----|----X----|----5----|----X----|    Play this three times. (each chord gets 4 counts)




Verse 2:
e------------|------------|---------------|--------------|
b------------|------------|---------------|--------------|
g------------|------------|---------------|--------------|
d------------|------------|---------------|--------------|
a---9-9-9-9--|--7-5-5-5--|--10-10-10-10--|--8-7-7-7------|
d---0-0-0-0--|--7-7-7-7--|--10-10-10-10--|--8-8-8-8------|


e------------|------------|---------------|--------------|
b------------|------------|---------------|--------------|
g------------|------------|---------------|--------------|
d------------|------------|---------------|--------------|
a---9-9-9-9--|--7-5-5-5--|--10-10-10-10--|--10-10-10-10--|
d---0-0-0-0--|--7-7-7-7--|--10-10-10-10--|--10-10-10-10--|      Play both bars twice.



Chorus:

  A         D sus2      G add9   D sus2
e----0----|----0----|----X----|----0----|
b----2----|----3----|----X----|----3----|
g----2----|----2----|----4----|----2----|
d----2----|----0----|----5----|----0----|
a----0----|----X----|----5----|----X----|
d----X----|----X----|----5----|----X----|    Play this twice. (each chord gets 4 counts)



Tag:

  F add9     G add9
e----X----|----X----|
b----X----|----X----|
g----2----|----4----|
d----3----|----5----|
a----3----|----5----|
d----3----|----5----|          Play this twice. (each chord gets 4 counts)



Goes right into Solo:

    A         F add9    G add9    D sus2
e----0----|----X----|----X----|----0----|
b----2----|----X----|----X----|----3----|
g----2----|----2----|----4----|----2----|
d----2----|----3----|----5----|----0----|
a----0----|----3----|----5----|----X----|
d----X----|----3----|----5----|----X----|    Play this twice. (each chord gets 4 counts)



Chorus:

    A        D sus2    G add9    D sus2
e----0----|----0----|----X----|----0----|
b----2----|----3----|----X----|----3----|
g----2----|----2----|----4----|----2----|
d----2----|----0----|----5----|----0----|
a----0----|----X----|----5----|----X----|
d----X----|----X----|----5----|----X----|    Play this twice. (each chord gets 4 counts)

goes right back into the chorus.

Chorus:

    A        D sus2     G add9     D sus2
e----0----|----0----|----X----|----0----|
b----2----|----3----|----X----|----3----|
g----2----|----2----|----4----|----2----|
d----2----|----0----|----5----|----0----|
a----0----|----X----|----5----|----X----|
d----X----|----X----|----5----|----X----|    Play this three times. (each chord gets 4 counts)

The song ends on A

                   e----0----|
                   b----2----|
                   g----2----|
                   d----2----|
                   a----0----|
                   d----X----|
Tap to rate this tab
 
# A B C D E F G H I J K L M N O P Q R S T U V W X Y Z