Guitaretab - guitar tabs
Song name
# A B C D E F G H I J K L M N O P Q R S T U V W X Y Z

Black Stone Cherry - Big City Lights tab

-------------------------------------------------------------------------------
         Big City Lights  Black Stone Cherry
-------------------------------------------------------------------------------
Tabbed by: blackstonet
Email:___________________

Tuning: drop c#

Intro

E|----------------------------------------------------------|
B|----------------------------------------------------------|
G|----------------------------------------------------------|
D|---7-----7-----4-----0------11------11-------6--------6---|
A|----------------------------------------------------------|
E|-4---4-----0-----0------7-------7-------2---------2-------| x4


Bride

E|----------------------------------------------------------------------|
B|----------------------------------------------------------------------|
G|----------------------------------------------------------------------|
D|------7-----6------------------7-----6---------------7-----6----------|
A|------------------7--9---------------------9~--------------------7--9-|
E|0--0----0------0---------0--0----0------0------0--0----0------0-------|

[ Tab from: http://www.guitaretab.com/b/black-stone-cherry/86338.html ]
E|----------------------------------------------------------------------|
B|----------------------------------------------------------------------|
G|----------------------------------------------------------------------|
D|-------------------<3>------------------------------------------------|
A|--5-------2------[2-4-2]---0------------------------------------------|
E|----------------------------------------------------------------------|


Verse


e|-----------------------------------------------------------------|
B|-----------------------------------------------------------------|
G|-----------------------------------------------------------------|
D|---11-----11-----9------4----------------------------------------|
A|---9------8------7------2----------------------------------------|
E|-----------------------------------------------------------------|x4

CHORUS


E|------------------------------------------------------------------|
B|------------------------------------------------------------------|
G|------------------------------------------------------------------|
D|--4-----0------7-----2--------------------------------------------|
A|--4-----0------7-----2--------------------------------------------|
E|--4-----0------7-----2--------------------------------------------|X8


THE SONG GOES- INTRO
               BRIDGE
               VERSE
               CHORUS
               VERSE
               CHORUS
               SOLO-NOT DONE YET
               VERSE
               CHORUS
               END


| <3> triplet
| /  slide up
| \  slide down
| h  hammer-on
| p  pull-off
| ~  vibrato
| +  harmonic
| x  Mute note
===============================================================================
Related for Big City Lights tab