Guitaretab - guitar tabs
Song name
# A B C D E F G H I J K L M N O P Q R S T U V W X Y Z

Black Stone Cherry - Tired Of The Rain tab

-------------------------------------------------------------------------------| Tired 
the Rain Ė Black Stone Cherry
-------------------------------------------------------------------------------|
Tabbed by: Chip
Email: mohcodfan@hotmail.com

 Well, itís the song. A lot of it is keyboard, but this should be the majority of 
It lacks the solo though, I didnít attempt to tab it.
Tuning: Standard

 Intro: x2 It may sound better with some hammer ons and slides thrown in there with some of the notes.

e|---------------------------------------------------------------------------|
B|-----4--7--2--6--4--2-----4--7--2--6--4------------------------------------|
G|-----------------------3---------------------------------------------------|
D|---------------------------------------------------------------------------|
A|---------------------------------------------------------------------------|
E|---------------------------------------------------------------------------|

Verse: Keyboard? Guitar? Iím not really sure, but these power chords blend in perfectly. 
rhythm is fairly simple.

e|---------------------------------------------------------------------------|
B|---------------------------------------------------------------------------|
G|--------------8-------------------6----------------------------------------|
D|--------------8-------------------6---------------------6------------------|
A|-------6-------------------4----------------------------6------------------|
E|------------------------------------------------4--------------------------|
[ Tab from: http://www.guitaretab.com/b/black-stone-cherry/89755.html ]
e|---------------------------------------------------------------------------|
B|---------------------------------------------------------------------------|
G|---------------8----------------6------------------------------------------|
D|---------------8----------------6--------------6--------------8------------|
A|--------6-----------------4--------------------6--------------8------------|
E|-----------------------------------------4--------------6------------------|

e|---------------------------------------------------------------------------|
B|---------------------------------------------------------------------------|
G|-----------------8------------------6--------------------------------------|
D|-----------------8------------------6-----------------6--------------------|
A|----------6-------------------4-----------------------6--------------------|
E|------------------------------------------------4--------------------------|

e|-----------------------------------------------------------------------------|
B|-----------------------------------------------------------------------------|
G|-----------------------------------6-----------------8-----------------------|
D|---------------8-------------------6-----------------8-----------------------|
A|---------------8-------------4-----------------6-----------------------------|
-------------------------------------------------------------------------------|
E|----------6------------------------------------------------------------------|


 Chorus: Same as Verse (With Distortion and different rhythm)


 Outro: Same as Intro, except on the 2nd time around, instead of 4 7 2 6 4 at the end it 
be 4 6 7 6 4 2 4

| /  slide up
| \  slide down
| h  hammer-on
| p  pull-off
| ~  vibrato
| +  harmonic
| x  Mute note
===============================================================================
Related for Tired Of The Rain tab