Song name
# A B C D E F G H I J K L M N O P Q R S T U V W X Y Z

Black Strobe - Im A Man tab

e|--------------------------------------------------------------------------|
B|--------------------------------------------------------------------------|
G|--------------------------------------------------------------------------|
D|--------------------------------------------------------------------------|
A|--------------------------------------------------------------------------|
E|--0--5----3--0-----------------0--5----3--0-------------------------------|

e|--------------------------------------------------------------------------|
B|--------------------------------------------------------------------------|
G|--------------------------------------------------------------------------|
D|--7--7----7----7----7----7----7--12----10----7----------------------------|
A|--7--7----7----7----7----7----7--12----10----7----------------------------|
E|--5--5----5----5----5----5----5--10----8-----5----------------------------|


etc...

J'espere avoir pu vous satisfaire avec cette tablature... :-)
Tap to rate this tab
 
# A B C D E F G H I J K L M N O P Q R S T U V W X Y Z