Song name
# A B C D E F G H I J K L M N O P Q R S T U V W X Y Z

Black Tide - Black Abyss tab

Black Tide
"Black Abyss"
Light From Above

All the tabs that i've seen for this song are terrible so i figured it out my self, it 
mostly right i played along with the CD. Just like everyone else though i don't know the 
If you do feel free to add it.

Intro
E|-----------------------------------------------------------------|
B|-----------------------------------------------------------------|
G|-----------------------------------------------------------------|
D|-----------0/3-2---/5-3-----------------0/3-2---/5-3---------7---|
A|--------------------------5-4-1-------------------------4--7-----|
D|---0-0-0-------------------------0-0-0---------------------------|
     * * *                         * * *

E|-------------------------------------------------------------------|
B|-------------------------------------------------------------------|
G|-------------------------------------------------------------------|
D|-----------0/3-2---/5-3-------------------0/3-2---/5-3---------7---|
A|---1-1-1------------------5-4-1----1-1-1------------------4--7-----|
D|-------------------------------------------------------------------|
     * * *                           * * *
(Repeat Intro as Needed)

Verse

E|--------------------------------------------------------------|
B|--------------------------------------------------------------|
G|--------------------------------------------------------------|
D|---------------------------------------------------------7----|
A|---0~--------------------4\1/5~---------------------4--7------|
D|---0~--0-0-0-0-0-0-0-0-0---------0-0-0-0-0-0-0-0-0------------|
         * * * * * * * * *         * * * * * * * * *
E|--------------------------------------------------------------|
B|--------------------------------------------------------------|
G|--------------------------------------------------------------|
D|-----------------------------------------------------------7--|
A|------------------------------------------------------4--7----|
D|---8-8-8--8-8-8-8-8-8-8--10-8-8~---8-8-8-8-8-8-8-8-8----------|
     * * *  * * * * * * *       p.h  * * * * * * * * *

Chorus (Guitar 1)

E|-----------------------------------------------------------|
B|-----------------------------------------------------------|
G|-----------------------------------------------------------|
D|---7~------------------------------------------------------|
A|---5~---7~--8~--5~--7~--3~--5~--1-1-1-1-1-1-1-1------------|
D|--------7~--8~--5~--7~--3~--5~--1-1-1-1-1-1-1-1------------|
                                  * * * * * * * *
Chorus (Guitar 2)

E|------------------------------------------------------------------>
B|------------------------------------------------------------------>
G|---7-7-9-10-9-7--7-7-9-10-9-7--9-9-10-12-10-9--12-12-14-15-14-12-->
D|------------------------------------------------------------------>
A|------------------------------------------------------------------>
D|------------------------------------------------------------------>
     * * * *  * *  * * * *  * *  * * *  *  *  *  *  *  *  *  *  *
E|-------------------------------------------------------------------|
B|-------------------------------------------------------------------|
G|---14-14-15-17-15-14--10-10-12-14-12-10--12-12-14-15-14-12---------|
D|-------------------------------------------------------------------|
A|-------------------------------------------------------------------|
D|-------------------------------------------------------------------|
     *  *  *  *  *  *   *  *  *  *  *  *   *  *  *  *  *  *

Repeat Verse as Needed

Repeat Chorus as Needed

Breakdown (Same as Chorus-Guitar 2, just acoustic)

Repeat Chorus One last Time
Fade intro as Outro.

Hope its good enough, its more than just the intro at least have fun with it Black Tide 
a GREAT band.

Pogo_punkr
Tap to rate this tab
# A B C D E F G H I J K L M N O P Q R S T U V W X Y Z