Song name
# A B C D E F G H I J K L M N O P Q R S T U V W X Y Z

Black Tide - Warriors Of Time tab

Song : Warriors of time
Artist : Black Tide
Composer : Gabriel Garcia
this is my first tab. i haven't bothered to tab the nice intro but i've tabbed the rest 
the song (except the first solo) and the second solo and the outro lead bit. I've put it 
different parts to make it easy to learn. Hope you enjoy playing it!

Intro:
e|------------------------------|
B|------------------------------|
G|-7--------3-----------------5-|woah oh oh oh
D|-7--------3--------3--------5-|
A|-5--------1--------3--------3-|
E|-------------------1----------|

e|----------------------------------------------------------------------|
B|----------------------------------------------------------------------|
G|--7----------------3---------------------------------5-------------5--|
D|--7----------------3----------------3----------------5-------------5--|
A|--5555555555555555-1-11111111111111-3----------------3-33333333333-3--|
E|------------------------------------1-11111111111111------------------|

Main Riff:
e||---------------------------|
B||---------------------------|
G||-7-----------5-3-2-0-3-2-0-|
D||-7-------------------------|
A||-5-5-5-5-5-5---------------|
E||---------------------------|

e ----------------------------|
B ----------------------------|
G -3-----------3-2-0----2-0---|
D -3------------------3-----3-|
A -1-1-1-1-1-1----------------|
E ----------------------------|

e ---------------------------|
B ---------------------------|
G -2-------------------------|
D -2-------------------------|
A -0-0-0-0-0-0---------------|
E -------------6-5-3-6-5-3-0-|

e -------------------------||
B -------------------------||
G -------------------------||
D -------------------------||
A -----------0---0-1-0-1-3-||
E -0-1-3-1-3---3-----------||

Verse:
e|----------------------------------|"we are the ones...."
B|----------------------------------|
G|-7--------3-----------------5----5|
D|-7--------3--------3--------5----5|
A|-5--------1--------3--------3----3|
E|-------------------1--------------|

e||------------------------|
B||------------------------|
G||-7----------------------|
D||-7-------------5-5-7-7--|p   (p is pinch harmonic here)
A||-5-5-5-5-5-5-5----------|
E||------------------------|

e ------------------------|
B ------------------------|
G -3----------------------|
D -3-------------5-5-7-7--|p   (p is pinch harmonic here)
A -1-1-1-1-1-1-1----------|
E ------------------------|

e -------------------------|
B -------------------------|
G ---------------5---------|
D -3---------------8-7h8p7-|
A -3-----------------------|
E -1-1-1-1-1-1-1-----------|

e -------------------------------||
B -------------------------------||
G -5-------------------------3-5-||
D -5-------------5-3-5-7-5-7-----||
A -3-3-3-3-3-3-3-----------------||
E -------------------------------||

woah oh oh oh:
e|------------------------------|
B|------------------------------|
G|-7--------3-----------------5-|
D|-7--------3--------3--------5-|
A|-5--------1--------3--------3-|
E|-------------------1----------|

Chorus:

e||-------------------------------------------------|
B||-------------------------------------------------|
G||-7-----------------------------------------------|
D||-7-----------3-----------5-----------------3-----|
A||-5-5-5-5-5-5-3-----------5-----------3-4-5---3-4-|
E||-------------1-1-1-1-1-1-3-3-3-3-3-3-------------|

e ---------------------------------------------------||
B ---------------------------------------------------||
G -7-------------------------------------------------||
D -7-----------3-----------5-----------------3-4-5-6-||
A -5-5-5-5-5-5-3-----------5-----------3-4-5---------||
E -------------1-1-1-1-1-1-3-3-3-3-3-3---------------||

1st solo rhythm:
e|-----------------------------------------------------|
B|-----------------------------------------------------|
G|-7-------------------------3-------------------------|
D|-7-------------------------3-------------------------|
A|-5-5-5-5-5-5-5-5-5-5-5-5-5-1-1-1-1-1-1-1-1-1-1-1-1-1-|
E|-----------------------------------------------------|

e --------------------------------------|
B --------------------------------------|
G -2------------------------------------|
D -2-------------------------2--3--7--8-|
A -0-0-0-0-0-0-0-0-0-0-0-0-0-2--3--7--8-|
E ---------------------------0--1--5--6-|

Interlude:
e||---------------------------------------------------------------||
B||-------------------------------------------------6s8-6-5h6p5---||
G||-----9s10-9-7-9----------------------------------------------5-||
D||---7----------------10-8-7h8p7-------5-3-2-3---5---------------||
A||-5----------------8------------8---3---------3-----------------||
E||----------------6----------------1-----------------------------||
Then you play F5 4 times and G5 3 times

Weird bit:
e|--------------------------------------------------------|
B|--------------------------------------------------------|
G|-7-7-7-7-9-9-9-9-9-9-9-10-10-10-10-12-12-12-12-12-12-12-|
D|--------------------------------------------------------|
A|-5-5-5-5-7-7-7-7-7-7-7-8--8--8--8--10-10-10-10-10-10-10-|
E|--------------------------------------------------------|

e -------------------------------------------------------------------|
B -------------------------------------------------------------------|
G -14-14-14-14-15-15-15-15-15-15-15-17-17-17-17-19-19-19-19-19-19-19-|
D -------------------------------------------------------------------|
A -12-12-12-12-13-13-13-13-13-13-13-15-15-15-15-17-17-17-17-17-17-17-|
E -------------------------------------------------------------------|

Drum solo:
e|-------------------------------------------------------------|
B|-------------------------------------------------------------|
G|-7-7-7-7-7-7-9-9-9-9-9-9-10-10-10-10-10-10-12-12-12-12-12-12-|
D|-------------------------------------------------------------|
A|-------------------------------------------------------------|
E|-------------------------------------------------------------|

e -------------------------------------------------------------------------|
B -------------------------------------------------------------------------|
G -10-10-10-10-10-10-12-12-12-12-12-12-14-14-14-14-14-14-15-15-15-15-15-15-|
D -------------------------------------------------------------------------|
A -------------------------------------------------------------------------|
E -------------------------------------------------------------------------|


SOLO 2:
e|--------------------------------|
B|--------------------------------|
G|---------------------------12-14|
D|------------------12-14-15------|
A|---------12-14-15---------------|
E|12-14-15------------------------|

e|----------------------------------------|
B|----------------------------------------|pick every note
G|12-10-9-10-9----9-----------------------|
D|-------------12---12-10-12-10-9-10b11-10|
A|----------------------------------------|
E|----------------------------------------|

e|------------------------------------|
B|------------------------------------|pick every note again
G|10-10-8-7-8-7----7------------------|
D|--------------10---10-8-10-8-7-8b9-8|
A|------------------------------------|
E|------------------------------------|

e|------------------------------------|
B|-8-6-10-6-8-6-10-6-11-6-10-6-8-6----|pull off every note to the 6th fret
G|------------------------------------|
D|------------------------------------|
A|------------------------------------|
E|------------------------------------|

    t      t      t      t      t      t      t      t
e|-10-5-8-10-5-8-10-5-8-10-5-8-10-5-8-10-5-8-13-5-8-13-5-8|
B|--------------------------------------------------------|
G|--------------------------------------------------------|tap as fast you
D|--------------------------------------------------------|can, i can't
A|--------------------------------------------------------|really get
E|--------------------------------------------------------|the effect on tab

    t      t      t      t      t      t      t      t
e|-12-5-8-12-5-8-12-5-8-12-5-8-12-5-8-12-5-8-15-5-8-15-5-8|
B|--------------------------------------------------------|
G|--------------------------------------------------------|
D|--------------------------------------------------------|
A|--------------------------------------------------------|
E|--------------------------------------------------------|


    t      t      t      t      t      t      t      t
e|-13-5-8-13-5-8-13-5-8-13-5-8-13-5-8-13-5-8-17-5-8-17-5-8|
B|--------------------------------------------------------|
G|--------------------------------------------------------|
D|--------------------------------------------------------|
A|--------------------------------------------------------|
E|--------------------------------------------------------|

e|-15-13-13-17-13-13-15-13-13-17-13-13-15-13-13-17-13-13-15-13-13|
B|---------------------------------------------------------------|tremolo
G|---------------------------------------------------------------|pick
D|---------------------------------------------------------------|(really
A|---------------------------------------------------------------|fast)
E|---------------------------------------------------------------|

e|-------12-------------12-------------12-------------12-------|
B|-15b17----15-12-15b17----15-12-15b17----15-12-15b17----15-12-|
G|-------------------------------------------------------------|
D|-------------------------------------------------------------|
A|-------------------------------------------------------------|
E|-------------------------------------------------------------|

   hold bend
e -15b17-15|
B ---------|
G ---------|
D ---------|
A ---------|
E ---------|


   tremolo pick awesomely fast (listen to the solo you'll get the feel)
e|-12-12-12-12-15-12-12-17-12-12-15-12-12-17-12-12-15-12-12-17-12-12-15-12-12-17-12-12-|
B|-------------------------------------------------------------------------------------|
G|-------------------------------------------------------------------------------------|
D|-------------------------------------------------------------------------------------|
A|-------------------------------------------------------------------------------------|
E|-------------------------------------------------------------------------------------|

   hold bend
e -17b19-17-15--------|
B --------------17-15-|
G --------------------|
D --------------------|
A --------------------|
E --------------------|


     tremolo pick awesomely fast again
e|-17-17-15-12-17-15-12-17-15-12-17-15-12-------------------------------------|
B|----------------------------------------17-15-12-17-15-12-17-15-12-17-15-12-|
G|----------------------------------------------------------------------------|
D|----------------------------------------------------------------------------|
A|----------------------------------------------------------------------------|
E|----------------------------------------------------------------------------|

e -17-15-12-17-15-12-17-15-12-17-15-12-------------------------------------|
B -------------------------------------17-15-12-17-15-12-17-15-12-17-15-12-|
G -------------------------------------------------------------------------|
D -------------------------------------------------------------------------|
A -------------------------------------------------------------------------|
E -------------------------------------------------------------------------|

e|-------------------------------------------------------------|
B|-12-12-12-10----------------10-12-12-12-10----------------10-|
G|-------------12-11-11-11-12----------------12-11-11-11-12----|
D|-------------------------------------------------------------|
A|-------------------------------------------------------------|
E|-------------------------------------------------------------|

e|-----------------------------------------|
B|---------10b12-10----10------------------|
G|12b14-12----------12----12-10----10------|
D|------------------------------12----12v--|
A|-----------------------------------------|
E|-----------------------------------------|

Outro lead:
e|-10----12-13-------12-13--------s17-15-13----------------------------13-15|
B|-------------10-----------10--------------17-15----15-13-15-17-15-17------|
G|--------------------------------------------------------------------------|
D|--------------------------------------------------------------------------|
A|--------------------------------------------------------------------------|
E|--------------------------------------------------------------------------|

End Tapping:
   t       t       t       t       t       t       t       t
e|-13-5-10-13-5-10-13-5-10-13-5-10-13-5-10-13-5-10-13-5-10-13-5-10-|
B|-----------------------------------------------------------------|
G|-----------------------------------------------------------------|
D|-----------------------------------------------------------------|
A|-----------------------------------------------------------------|
E|-----------------------------------------------------------------|

   t       t       t       t       t       t       t       t
e -----------------------------------------------------------------|
B -14-6-11-14-6-11-14-6-11-14-6-11-14-6-11-14-6-11-14-6-11-14-6-11-|
G -----------------------------------------------------------------|
D -----------------------------------------------------------------|
A -----------------------------------------------------------------|
E -----------------------------------------------------------------|

   t       t       t       t       t       t       t       t
e -15-8-13-15-8-13-15-8-13-15-8-13-15-8-13-15-8-13-15-8-13-15-8-13-|
B -----------------------------------------------------------------|
G -----------------------------------------------------------------|
D -----------------------------------------------------------------|
A -----------------------------------------------------------------|
E -----------------------------------------------------------------|

   t       t       t       t       t       t       t       t
e -14-8-12-14-8-12-14-8-12-14-8-12-14-8-12-14-8-12-14-8-12-14-8-12-|
B -----------------------------------------------------------------|
G -----------------------------------------------------------------|
D -----------------------------------------------------------------|
A -----------------------------------------------------------------|
E -----------------------------------------------------------------|

Song format:
Intro x1
Main Riff x2
Woah oh oh x1 (but its actually the beginning of the verse)
Verse x2
Woah oh oh x1
Chorus x2
Main Riff x1
Verse x3
Woah oh oh x1
Chorus x2
1st solo (don't know it, sorry!)
Interlude x2 (Then you play F5 4 times and G5 3 times)
Weird bit x1
Drum solo x1
Chorus x2
2nd solo
Woah oh oh x1 (we are the warriors...)
Outro lead x1
End tapping x1
Tap to rate this tab
# A B C D E F G H I J K L M N O P Q R S T U V W X Y Z