Song name
# A B C D E F G H I J K L M N O P Q R S T U V W X Y Z

Black Tide - Black Abyss tab

Help us improve GuitareTab! Take a short survey!
-------------------------------------------------------------------------------
			     Black Tide - Black Abyss
-------------------------------------------------------------------------------
Tabbed by:
Email:
* = Palm Mute
Tuning:Standard D

Intro riff/ main riff 

D|------------------------------------------------------------------------|
A|------------------------------------------------------------------------|
F|-------------------------------------------------------------4----------/
C|---------2---5-4---7--5----------------2---5-4---7--5-----4-------------|
G|-------------------------6--2--------------------------6----------------|
D|--0-0-0-------------------------0-0-0-----------------------------------|
    * * *                         * * *

D|------------------------------------------------------------------------|
A|------------------------------------------------------------------------|
F|-----------------------------------------------------------4------------|
C|---------2---5-4--7--5----------------2--5-4--7--5------4---------------|
G|--3-3-3-----------------6--2--3-3-3-----------------6-------------------|
D|--*-*-*-----------------------*-*-*-------------------------------------|


Verse 

D|---------------------------------------------------------------------------|
A|---------------------------------------------------------------------------|
F|------------------------------------------------------------------4--------|
C|-2---2-2-2-2-2-2-2-2-2----1------2---2--2-2-2-2-2-2-2-2-2------4-----------|
G|-2---2-2-2-2-2-2-2-2-2--------2------2--2-2-2-2-2-2-2-2-2---6--------------|
D|-0---0-0-0-0-0-0-0-0-0---------------0--0-0-0-0-0-0-0-0-0------------------|
       * * * * * * * * *

Chorus

D|---------------------------------------------------------------------------|
A|---------------------------------------------------------------------------|
F|---------------------------------------------------------------------------|
C|---9-----------------------------------------------------------------------|
G|---7----9---10----7----9----5----7----3------------------------------------|
D|--------7----8----5----7----3----5----1------------------------------------|

 Lead part is
D|---------------------------------------------------------------------------|
A|---------------------------------------------------------------------------|
F|-9--9-11-12-11-9---9--9-11-12-11-9--11--11-12-14-12-11--14--14-16-17-16-14-|
C|---------------------------------------------------------------------------|
G|---------------------------------------------------------------------------|
D|---------------------------------------------------------------------------|


D|---------------------------------------------------------------------------|
A|---------------------------------------------------------------------------|
F|-16--16-17-19-17-16--12--12-14-16-14--12---14--14-16-17-16-14--------------|
C|---------------------------------------------------------------------------|
G|---------------------------------------------------------------------------|
D|---------------------------------------------------------------------------|

No Solo Sorry

The Bridge is the route note of the chorus chords with the lead part from the chorus

 The outro solo thing which is awesome is

    Tap the whole thing
D|---------------------------------------------------------------------------|
A|--12-8-5-12-8-12-8-5-12-8-12-8-5-12-8-5-12-8-5-----------------------------|
F|---------------------------------------------------------------------------|
C|---------------------------------------------------------------------------|
G|---------------------------------------------------------------------------|
D|---------------------------------------------------------------------------|

then on the next string
D|--12-8-5-12-8-12-8-5-12-8-12-8-5-12-8-12-8-5-------------------------------|
A|---------------------------------------------------------------------------|
F|---------------------------------------------------------------------------|
C|---------------------------------------------------------------------------|
G|---------------------------------------------------------------------------|
D|---------------------------------------------------------------------------|

Related for Black Abyss tab