Song name
# A B C D E F G H I J K L M N O P Q R S T U V W X Y Z

Black Tide - Black Abyss tab

Black Abyss - Black Tide

I know there is already a tab for this song, 
but Black Tide plays all of their songs in D Standard. 
So here is the correct intro in the right tuning.
It is easier this way.

|-------------------------------|
|-------------------------------|
|-------------------------------|
|-------------------------------|
|-----7---10s9----12---10--6----|
|-000---0-------0----0--------8-|

|----------------------------------|
|----------------------------------|
|----------------------------------|
|-------------------------------9--|
|-----7---10s9----12---10---6-9----|
|-000---0-------0----0----0--------|

Then:


|-------------------------------|
|-------------------------------|
|-------------------------------|
|-------------------------------|
|-----7---10s9----12---10--6----|
|-888---8-------8----8--------8-|

|----------------------------------|
|----------------------------------|
|----------------------------------|
|-------------------------------9--|
|-----7---10s9----12---10---6-9----|
|-888---8-------8----8----8--------|

Then the Verse:

Verse

E|--------------------------------------------------------------|
B|--------------------------------------------------------------|
G|--------------------------------------------------------------|
D|---------------------------------------------------------9----|
A|---2~--------------------6---7---2------------------6--9------|
D|---0~--0-0-0-0-0-0-0-0-0---8-----0-0-0-0-0-0-0-0-0------------|
         * * * * * * * * *         * * * * * * * * *
E|--------------------------------------------------------------|
B|--------------------------------------------------------------|
G|--------------------------------------------------------------|
D|-----------------------------------------------------------9--|
A|--10-------------------------------10----------------6--9-----|
D|---8-8-8--8-8-8-8-8-8-8--11-8-8~---8-8-8-8-8-8-8-8-8----------|
     * * *  * * * * * * *       p.h  * * * * * * * * *

The the Chorus:

E|-----------------------------------------------------------|
B|-----------------------------------------------------------|
G|-----------------------------------------------------------|
D|---7~------------------------------------------------------|
A|---5~---9~--10~-7~--9~--5~--7~--3-3-3-3-3-3-3-3------------|
D|--------7~--8~--5~--7~--3~--5~--1-1-1-1-1-1-1-1------------|
                                  * * * * * * * *
Tap to rate this tab
 
# A B C D E F G H I J K L M N O P Q R S T U V W X Y Z