Song name
# A B C D E F G H I J K L M N O P Q R S T U V W X Y Z

Black Tide - Shout tab

BLACK TIDE
“Shout”
Tuning:Standard
Verse 1
-------------------------------------------------------------|
-------------------------------------------------------------|
-------------------------------------------------------------|
------22x2x----2xx2x---5---5—5/4-----------------------------|
---2--00x0x----0xx0x---3---3—3/2--0--5-5---------------------|
3----------------3b------------------3-3---------------------|(Eight Times)
Chorus1
---------------------------------------------------------------|
---------------------------------------------------------------|
---------------------------------------------------------------|
2----2-x--------------------5----5---x-x-x---------------------|
0----0-x----5---x-5-5-x-x---3----3---x-x-x—5---3------3--------|
------------3---x-3-3-x-x-------------------------5-4----5-4-5-|

---------------------------------------------------------------|
---------------------------------------------------------------|
---------------------------------------------------------------|
2----2-x--------------------5----5---x-x-x---------------------|
0----0-x----5---x-5-5-x-x---3----3---x-x-x—5-------------------|(Two Times)
------------3---x-3-3-x-x--------------------------------------|

Verse 2
--------------------------------------------------------------|
--------------------------------------------------------------|
--------------------------------------------------------------|
------22x2x----2xx2x---5---5—5/4------------------------------|
--—2--00x0x----0xx0x---3---3—3/2--0--5-5----------------------|
3----------------3b------------------3-3-------(Eight Times)--|

Chorus 2
----------------------------------------------------------------|
----------------------------------------------------------------|
----------------------------------------------------------------|
----2----2-x--------------------5----5---x-x-x------------------|
----0----0-x----5---x-5-5-x-x---3----3---x-x-x—5---3-----3------|
----------------3---x-3-3-x-x------------------------5-4--5-4-5-|

----------------------------------------------------------------|
----------------------------------------------------------------|
----------------------------------------------------------------|
----2----2-x--------------------5----5---x-x-x------------------|
----0----0-x----5---x-5-5-x-x---3----3---x-x-x—5----------------|(Two Times)
----------------3---x-3-3-x-x-----------------------------------|

Solo A
--12-8---------8-12-8------8-12/17-13---------12--15--13-----|
-------11---11-------11---11---------15----15----------------|
----------9-------------9---------------14-------------------|
-------------------------------------------------------------|
-------------------------------------------------------------|
-------------------------------------------------------------|

---12----------------------------------------------|
-------15--13--12----------------------------------|
----------------------14--13-----------------------|
---------------------------------------------------|
-----------------(Four Times)----------------------|
---------------------------------------------------|
Solo B Not Known

Chorus 3
----------------------------------------------------------|
----------------------------------------------------------|
----------------------------------------------------------|
---2----2-x-----------------5----5---x-x-x----------------|
---0----0-x--5---x-5-5-x-x--3----3---x-x-x—5-3----3-------|
-------------3---x-3-3-x-x---------------------5-4--5-4-5-|

----------------------------------------------------|
----------------------------------------------------|
----------------------------------------------------|
---2----2-x-----------------------5----5---x-x-x----|
---0----0-x----5---x-5-5-x-x------3----3---x-x-x—5--|(Two Times)
---------------3---x-3-3-x-x------------------------|

Breakdown

-----------------------------------------------------------------------|
-----------------------------------------------------------------------|
-----------------------------------------------------------------------|
2—2--2--x-2-x-2-x---------------------5-5--5—x-5-x-5/7-7---3---------3-|
0-0--0--x-0-x-0-x--5—5--5--x-5-x-5-x--3-3--3-x-3-x-3/5-5-----6--5--3---|
-------------------3—3--3--x-3-x-3-x-----------------------------------|


---------------------------------------------------------------|
---------------------------------------------------------------|
---------------------------------------------------------------|
--------2--2---2--x-2-x-2-x---------------------5--5--5—5--5-7-|
6-5-3---0--0---0--x-0-x-0-x--5-5--5--x-5-x-5-x--3--3--3-3--3—5-|
-----------------------------3-3--3--x-3-x-3-x-----------------|
Tap to rate this tab
# A B C D E F G H I J K L M N O P Q R S T U V W X Y Z