Song name
# A B C D E F G H I J K L M N O P Q R S T U V W X Y Z

Black Tide - Warriors Of Time tab

--------------------------------------------------------------------------------
			     WARRIORS OF TIME - Black Tide
-------------------------------------------------------------------------------
Tabbed by: Greekboy Slim

Tuning: Standard

(Clean/Acoustic Intro)
e|---------------------------------------------------------------------------|
B|---------------------------------------------------------------------------|
G|-------/10--9--7--9-----------/5--3--2--3p2--------------------------------|
D|----7----------------------3----------------3------------------------------|
A|-5----------------------1---------------------3----------------------------|
E|---------------------------------------------------------------------------|

e|---------------------------------------------------------------------------|
B|-----------------------------/8--6--5--6p5---------------------------------|
G|------------------------------------------5p0------------------------------|
D|-------/5--3--2--3--------5------------------------------------------------|
A|----3------------------3---------------------------------------------------|
E|-1-------------------------------------------------------------------------|

e|---------------------------------------------------------------------------|
B|---------------------------------------------------------------------------|
G|-------/10--9--7--9-----------/5--3--2--3p2--------------------------------|
D|----7----------------------3----------------3------------------------------|
A|-55---------------------11--------------------3----------------------------|
E|---------------------------------------------------------------------------|

e|---------------------------------------------------------------------------|
B|-----------------------------/8--6--5--6p5---------------------------------|
G|------------------------------------------5p0------------------------------|
D|-------/5--3--2--3--------5------------------------------------------------|
A|----3------------------3---------------------------------------------------|
E|-1-------------------------------------------------------------------------|

e|-5-------------------------------------------------------------------------|
B|---6-5-6~------------------------------------------------------------------|
G|-----------------------7--10-9-7-------------------------------------------|
D|------------------8/10------------10---------------------------------------|
A|----------------8---------------------8------------------------------------|
E|--------------6------------------------------------------------------------|

e|-------------------1---------------------5-8-------------------------------|
B|-----------------1-----------------5---5-----------------------------------|
G|-----------2---2-------------5---5---5-------------------------------------|
D|-----3---3---3-------------5---5-------------------------------------------|
A|---3---3-----------------3-------------------------------------------------|
E|-1-------------------------------------------------------------------------|

e|-5-------------------------------------------------------------------------|
B|---6-5-6~------------------------------------------------------------------|
G|-----------------------7--10-9-7-------------------------------------------|
D|------------------8/10------------10---------------------------------------|
A|----------------8---------------------8------------------------------------|
E|--------------6------------------------------------------------------------|

e|-------------------1---------------------5-8-------------------------------|
B|-----------------1-----------------5---5-----------------------------------|
G|-----------2---2-------------5---5---5-------------------------------------|
D|-----3---3---3-------------5---5-------------------------------------------|
A|---3---3-----------------3-------------------------------------------------|
E|-1-------------------------------------------------------------------------|

e|-5-------------------------------------------------------------------------|
B|---6-5-6~------------------------------------------------------------------|
G|-----------------------7--10-9-7-------------------------------------------|
D|------------------8/10------------10---------------------------------------|
A|----------------8---------------------8------------------------------------|
E|--------------6------------------------------------------------------------|

e|-------------------1---------------------5-8-------------------------------|
B|-----------------1-----------------5---5-----------------------------------|
G|-----------2---2-------------5---5---5-------------------------------------|
D|-----3---3---3-------------5---5-------------------------------------------|
A|---3---3-----------------3-------------------------------------------------|
E|-1-------------------------------------------------------------------------|


(Switch to distortion)
e|---------------------------------------------------------------------------|
B|---------------------------------------------------------------------------|
G|-9h10p9-10-12~--10-12--9h10p9-10-12~--9~-10-12-10~-------------------------|
D|---------------------------------------------------------------------------|
A|---------------------------------------------------------------------------|
E|---------------------------------------------------------------------------|

e|-----------------5-8-------------------------------------------------------|
B|-----------5---5-----------------------------------------------------------|
G|-----5---5---5----------(feedback)-----------------------------------------|
D|---5---5-------------------------------------------------------------------|
A|-3-------------------------------------------------------------------------|
E|---------------------------------------------------------------------------|

e|---------------------------------------------------------------------------|
B|---------------------------------------------------------------------------|
G|-7---3-------5--------------7----------------------------------------------|
D|-7---3---3---5--------3-5/7------------------------------------------------|
A|-5---1---3---3--3-4-5------------------------------------------------------|
E|---------1-----------------------------------------------------------------|

e|---------------------------------------------------------------------------|
B|---------------------------------------------------------------------------|
G|-7------------3-------------------------5--------5-------------------------|
D|-7------------3------------3------------5--------5-------------------------|
A|-555555555555-111111111111-3------------3333333--3-------------------------|
E|---------------------------111111111111------------------------------------|

e|---------------------------------------------------------------------------|
B|---------------------------------------------------------------------------|
G|-7------5-3-2-0-320-3------3-2-0---2p0--2----------------------------------|
D|-7------------------3------------3----3-2----------------------------------|
A|-555555-------------111111--------------000000-----------------------------|
E|-----------------------------------------------6-5-3-0-6-5-3---------------|
                                                 . . . . . . .
e|---------------------------------------------------------------------------|
B|---------------------------------------------------------------------------|
G|---------------------------------------------------------------------------|
D|---------------------------------------------------------------------------|
A|-----------0---0-1-0-1-3---------------------------------------------------|
E|-0-1-3-1-3---3-------------------------------------------------------------|


e|---------------------------------------------------------------------------|
B|---------------------------------------------------------------------------|
G|-7------5-3-2-0-320-3------3-2-0---2p0--2----------------------------------|
D|-7------------------3------------3----3-2----------------------------------|
A|-555555-------------111111--------------000000-----------------------------|
E|-----------------------------------------------6-5-3-0-6-5-3---------------|
                                                 . . . . . . .
e|---------------------------------------------------------------------------|
B|---------------------------------------------------------------------------|
G|---------------------------------------------------------------------------|
D|---------------------------------------------------------------------------|
A|-----------0---0-1-0-1-3---------------------------------------------------|
E|-0-1-3-1-3---3-------------------------------------------------------------|

e|---------------------------------------------------------------------------|
B|---------------------------------------------------------------------------|
G|-7---3-----------5---------------------------------------------------------|
D|-7---3---3---s---5---------------------------------------------------------|
A|-5---1---3---s---3---------------------------------------------------------|
E|---------1---s-------------------------------------------------------------|

e|---------------------------------------------------------------------------|
B|---------------------------------------------------------------------------|
G|-7--------------3-----------------------/5-3-2h3p2-----------------7-------|
D|-7------55577*--3------55577*--3-------------------/5--------3-5/7-7-------|
A|-5555555--------1111111--------3-----------------------3-4-5---------------|
E|-------------------------------1111111-------------------------------------|

e|---------------------------------------------------------------------------|
B|---------------------------------------------------------------------------|
G|-7--------------3-----------------------/5-3-2h3p2-----------------7-------|
D|-7------55577*--3------55577*--3-------------------/5--------3-5/7-7-------|
A|-5555555--------1111111--------3-----------------------3-4-5---------------|
E|-------------------------------1111111-------------------------------------|

e|---------------------------------------------------------------------------|
B|---------------------------------------------------------------------------|
G|-7---3-------5-------------------------------------------------------------|
D|-7---3---3---5---s---------------------------------------------------------|
A|-5---1---3---3---s---------------------------------------------------------|
E|---------1-------s---------------------------------------------------------|

e|---------------------------------------------------------------------------|
B|---------------------------------------------------------------------------|
G|-7-7------------------------------7-7--------------------------------------|
D|-7-7----3-3----5-5----------3-----7-7----3-3----5-5----------3-5/7---------|
A|-5-5555-3-3----5-5----3-4-5---5-3-5-5555-3-3----5-5----3-4-5---------------|
E|--------1-1111-3-3333--------------------1-1111-3-3333---------------------|

e|---------------------------------------------------------------------------|
B|---------------------------------------------------------------------------|
G|-7-7------------------------------7-7------------------5-------------------|
D|-7-7----3-3----5-5----------3-----7-7----3-3----5-5----5-------------------|
A|-5-5555-3-3----5-5----3-4-5---5-3-5-5555-3-3----5-5----3-------------------|
E|--------1-1111-3-3333--------------------1-1111-3-3333---------------------|

e|---------------------------------------------------------------------------|
B|---------------------------------------------------------------------------|
G|-7------5-3-2-0-320-3------3-2-0---2p0--2----------------------------------|
D|-7------------------3------------3----3-2----------------------------------|
A|-555555-------------111111--------------000000-----------------------------|
E|-----------------------------------------------6-5-3-0-6-5-3---------------|
                                                 . . . . . . .
e|---------------------------------------------------------------------------|
B|---------------------------------------------------------------------------|
G|---------------------------------------------------------------------------|
D|---------------------------------------------------------------------------|
A|-----------0---0-1-0-1-3---------------------------------------------------|
E|-0-1-3-1-3---3-------------------------------------------------------------|

e|---------------------------------------------------------------------------|
B|---------------------------------------------------------------------------|
G|-7--------------3-----------------------/5-3-2h3p2-----------------7-------|
D|-7------55577*--3------55577*--3-------------------/5--------3-5/7-7-------|
A|-5555555--------1111111--------3-----------------------3-4-5---------------|
E|-------------------------------1111111-------------------------------------|

e|---------------------------------------------------------------------------|
B|---------------------------------------------------------------------------|
G|-7--------------3-----------------------/5-3-2h3p2-----------------7-------|
D|-7------55577*--3------55577*--3-------------------/5--------3-5/7-7-------|
A|-5555555--------1111111--------3-----------------------3-4-5---------------|
E|-------------------------------1111111-------------------------------------|

e|---------------------------------------------------------------------------|
B|---------------------------------------------------------------------------|
G|-7--------------3-----------------------/5-3-2h3p2-----------------7-------|
D|-7------55577*--3------55577*--3-------------------/5--------3-5/7-7-------|
A|-5555555--------1111111--------3-----------------------3-4-5---------------|
E|-------------------------------1111111-------------------------------------|

e|---------------------------------------------------------------------------|
B|---------------------------------------------------------------------------|
G|-7---3-------5-------------------------------------------------------------|
D|-7---3---3---5---s---------------------------------------------------------|
A|-5---1---3---3---s---------------------------------------------------------|
E|---------1-------s---------------------------------------------------------|

e|---------------------------------------------------------------------------|
B|---------------------------------------------------------------------------|
G|-7-7------------------------------7-7--------------------------------------|
D|-7-7----3-3----5-5----------3-----7-7----3-3----5-5----------3-5/7---------|
A|-5-5555-3-3----5-5----3-4-5---5-3-5-5555-3-3----5-5----3-4-5---------------|
E|--------1-1111-3-3333--------------------1-1111-3-3333---------------------|

e|---------------------------------------------------------------------------|
B|---------------------------------------------------------------------------|
G|-7-7------------------------------7-7--------------------------------------|
D|-7-7----3-3----5-5----------3-----7-7----3-3----5-5------------------------|
A|-5-5555-3-3----5-5----3-4-5---5-3-5-5555-3-3----5-5------------------------|
E|--------1-1111-3-3333--------------------1-1111-3-3333---------------------|

(Solo 1)
e|---------------------------------------------------------------------------|
B|-13p12p10-13p12p10---------------------------------------------------------|
G|-------------------13p12p10-13p12p10---------------------------------------|
D|-------------------------------------13p12p10-13p12p10---------------------|
A|-------------------------------------------------------13p12p10-13p12p10---|
E|---------------------------------------------------------------------------|
   (^ I am aware that the above part is wrong, but this is how I play it, since I cannot 
out how it is actually played)
e|---------------------------------------------------------------------------|
B|---------------------------------------------------------------------------|
G|----------------------------12-14~--12-14-12-10-12-10-9-10-9-7-9b10r9~-----|
D|-------------------12-13-14------------------------------------------------|
A|----------12-13-14---------------------------------------------------------|
E|-12-14-15------------------------------------------------------------------|

e|---------------------------------------------------------------------------|
B|-10-8h10p8---8-------------------------------------------------------------|
G|-----------9---9-7-9-7---7-9--9-7-9-10-9-10-12-10-12-14--------------------|
D|-----------------------9---------------------------------------------------|
A|---------------------------------------------------------------------------|
E|---------------------------------------------------------------------------|

e|-t17p13p10t17p13p10t17p13p10t17p13p10t17p13p10t17p13p10t17p13p10t17p13p10--|
B|---------------------------------------------------------------------------|
G|---------------------------------------------------------------------------|
D|---------------------------------------------------------------------------|
A|---------------------------------------------------------------------------|
E|---------------------------------------------------------------------------|

e|-t15p13p10t15p13p10t15p13p10t15p13p10t15p13p10t15p13p10t15p13p10t15p13p10--|
B|---------------------------------------------------------------------------|
G|---------------------------------------------------------------------------|
D|---------------------------------------------------------------------------|
A|---------------------------------------------------------------------------|
E|---------------------------------------------------------------------------|

e|-t18p13p10t18p13p10t18p13p10t18p13p10t18p13p10t18p13p10t18p13p10t18p13p10--|
B|---------------------------------------------------------------------------|
G|---------------------------------------------------------------------------|
D|---------------------------------------------------------------------------|
A|---------------------------------------------------------------------------|
E|---------------------------------------------------------------------------|

e|-t17p13p10t15p13p10t17p13p10t15p13p10t17p13p10t15p13p10t17p13p10t15p13p10--|
B|---------------------------------------------------------------------------|
G|---------------------------------------------------------------------------|
D|---------------------------------------------------------------------------|
A|---------------------------------------------------------------------------|
E|---------------------------------------------------------------------------|

e|-13---10---12b13r12-10-----------------------------------------------------|
B|-----------------------13-10---10b11r10------------------------------------|
G|----------------------------------------12\--------------------------------|
D|---------------------------------------------------------------------------|
A|---------------------------------------------------------------------------|
E|---------------------------------------------------------------------------|

e|---------------------------------------------------------------------------|
B|---------------------------------------------------------------------------|
G|-------/10--9--7--9-----------/5--3--2--3p2--------------------------------|
D|----7----------------------3----------------3------------------------------|
A|-5----------------------1---------------------3----------------------------|
E|---------------------------------------------------------------------------|

e|---------------------------------------------------------------------------|
B|---------------------------------------------------------------------------|
G|----------------------2b3r2~-----------------------------------------------|
D|-33-3333-3-33------xx------------------------------------------------------|
A|-33-3333-3-33------xx------------------------------------------------------|
E|-11-1111-1-11---/3-xx------------18\---------------------------------------|

e|---------------------------------------------------------------------------|
B|---------------------------------------------------------------------------|
G|----77------9-9----1010---------12--12---------14---------15--15---------17|
D|---------------------------------------------------------------------------|
A|-55----77-7--7--88------1010-10---10---1212-12----1313-13---13---1515-15---|
E|---------------------------------------------------------------------------|

e|---------------------------------------------------------------------------|
B|---------------------------------------------------------------------------|
G|---------19-19\------------------------------------------------------------|
D|---------------------------------------------------------------------------|
A|-1717-17-------------------------------------------------------------------|
E|---------------------------------------------------------------------------|

e|---------------------------------------------------------------------------|
B|---------------------------------------------------------------------------|
G|7777777799999999101010101010101012121212121212121010101010101010-----------|
D|---------------------------------------------------------------------------|
A|---------------------------------------------------------------------------|
E|---------------------------------------------------------------------------|

e|---------------------------------------------------------------------------|
B|-------------------------------------------------15~-----------------------|
G|121212121212121214141414141414141717171717171717---------------------------|
D|---------------------------------------------------------------------------|
A|---------------------------------------------------------------------------|
E|---------------------------------------------------------------------------|

e|---------------------------------------------------------------------------|
B|---------------------------------------------------------------------------|
G|-7-7------------------------------7-7--------------------------------------|
D|-7-7----3-3----5-5----------3-----7-7----3-3----5-5----------3-5/7---------|
A|-5-5555-3-3----5-5----3-4-5---5-3-5-5555-3-3----5-5----3-4-5---------------|
E|--------1-1111-3-3333--------------------1-1111-3-3333---------------------|

e|---------------------------------------------------------------------------|
B|---------------------------------------------------------------------------|
G|-7-7------------------------------7-7------------------5-------------------|
D|-7-7----3-3----5-5----------3-----7-7----3-3----5-5----5-------------------|
A|-5-5555-3-3----5-5----3-4-5---5-3-5-5555-3-3----5-5----3-------------------|
E|--------1-1111-3-3333--------------------1-1111-3-3333---------------------|

(Solo 2)
e|---------------------------------------------------------------------------|
B|---------------------------------------------------------------------------|
G|----------------------------12-14~--12-14-12-10-12-10-9-10-9-7-9b10r9~-----|
D|-------------------12-13-14------------------------------------------------|
A|----------12-13-14---------------------------------------------------------|
E|-12-14-15------------------------------------------------------------------|

e|---------------------------------------------------------------------------|
B|---------------------------------------------------------------------------|
G|-10-12-10-9-10-9-7-9-7-5-7b9r7---------------------------------------------|
D|---------------------------------------------------------------------------|
A|---------------------------------------------------------------------------|
E|---------------------------------------------------------------------------|

e|---------------------------------------------------------------------------|
B|---------------------------------------------------------------------------|
G|-7-97771077712777107779777107771277710-------------------------------------|
D|---------------------------------------------------------------------------|
A|---------------------------------------------------------------------------|
E|---------------------------------------------------------------------------|

e|-t10p5h8t10p5h8t10p5h8t10p5h8t10p5h8t10p5h8t10p5h8t10p5h8------------------|
B|---------------------------------------------------------------------------|
G|---------------------------------------------------------------------------|
D|---------------------------------------------------------------------------|
A|---------------------------------------------------------------------------|
E|---------------------------------------------------------------------------|

e|-t13p5h8t13p5h8t13p5h8t13p5h8t13p5h8t13p5h8t13p5h8t13p5h8------------------|
B|---------------------------------------------------------------------------|
G|---------------------------------------------------------------------------|
D|---------------------------------------------------------------------------|
A|---------------------------------------------------------------------------|
E|---------------------------------------------------------------------------|


e|-t12p5h8t12p5h8t12p5h8t12p5h8t12p5h8t12p5h8t12p5h8t12p5h8------------------|
B|---------------------------------------------------------------------------|
G|---------------------------------------------------------------------------|
D|---------------------------------------------------------------------------|
A|---------------------------------------------------------------------------|
E|---------------------------------------------------------------------------|

e|-t15p5h8t15p5h8t15p5h8t15p5h8t15p5h8t15p5h8t15p5h8t15p5h8------------------|
B|---------------------------------------------------------------------------|
G|---------------------------------------------------------------------------|
D|---------------------------------------------------------------------------|
A|---------------------------------------------------------------------------|
E|---------------------------------------------------------------------------|

e|-t13p5h8t13p5h8t13p5h8t13p5h8t13p5h8t13p5h8t13p5h8t13p5h8------------------|
B|---------------------------------------------------------------------------|
G|---------------------------------------------------------------------------|
D|---------------------------------------------------------------------------|
A|---------------------------------------------------------------------------|
E|---------------------------------------------------------------------------|

e|-t17p5h8t17p5h8t17p5h8t17p5h8t17p5h8t17p5h8t17p5h8t17p5h8------------------|
B|---------------------------------------------------------------------------|
G|---------------------------------------------------------------------------|
D|---------------------------------------------------------------------------|
A|---------------------------------------------------------------------------|
E|---------------------------------------------------------------------------|

e|---------------------------------------------------------------------------|
B|-15151515151515151515151515151515151515------------------------------------|
G|---------------------------------------------------------------------------|
D|---------------------------------------------------------------------------|
A|---------------------------------------------------------------------------|
E|---------------------------------------------------------------------------|

e|-------12-------------12-------------12-------------12-------15b17-15~-----|
B|-15b17----15-12-15b17----15-12-15b17----15-12-15b17----15-12---------------|
G|---------------------------------------------------------------------------|
D|---------------------------------------------------------------------------|
A|---------------------------------------------------------------------------|
E|---------------------------------------------------------------------------|

           (this part is played faster, but I spaced the notes out so that
                                                       itís easier to read)
e|-15-12----15-12-12-12-17-12-12-12-15-12-12-12-17-12-12-12-15-12-12-12-17---|
B|-------15------------------------------------------------------------------|
G|---------------------------------------------------------------------------|
D|---------------------------------------------------------------------------|
A|---------------------------------------------------------------------------|
E|---------------------------------------------------------------------------|

e|-12-12-12-15-12-12-12-17-12-12-12-17b19-17-15-12-15-12---15----------------|
B|---------------------------------------------------------------------------|
G|---------------------------------------------------------------------------|
D|---------------------------------------------------------------------------|
A|---------------------------------------------------------------------------|
E|---------------------------------------------------------------------------|

e|-17-15-12-12-17-15-12-12-17-15-12-12-17-15-12-12---------------------------|
B|---------------------------------------------------------------------------|
G|---------------------------------------------------------------------------|
D|---------------------------------------------------------------------------|
A|---------------------------------------------------------------------------|
E|---------------------------------------------------------------------------|

e|---------------------------------------------------------------------------|
B|-17-15-12-12-17-15-12-12-17-15-12-12-17-15-12-12---------------------------|
G|---------------------------------------------------------------------------|
D|---------------------------------------------------------------------------|
A|---------------------------------------------------------------------------|
E|---------------------------------------------------------------------------|

e|-17-15-12-12-17-15-12-12-17-15-12-12-17-15-12-12---------------------------|
B|---------------------------------------------------------------------------|
G|---------------------------------------------------------------------------|
D|---------------------------------------------------------------------------|
A|---------------------------------------------------------------------------|
E|---------------------------------------------------------------------------|

e|---------------------------------------------------------------------------|
B|-17-15-12-12-17-15-12-12-17-15-12-12-17-15-12-12---------------------------|
G|---------------------------------------------------------------------------|
D|---------------------------------------------------------------------------|
A|---------------------------------------------------------------------------|
E|---------------------------------------------------------------------------|

e|---------------------------------------------------------------------------|
B|-10-10-10-10-12-10--------------------10-10-10-10-12-10--------------------|
G|-------------------12-11-11-11-11-11~-------------------12-11-11-11-11-11~-|
D|---------------------------------------------------------------------------|
A|---------------------------------------------------------------------------|
E|---------------------------------------------------------------------------|

e|-------------------------------------10------------------------------------|
B|----------10b12r10---------------------------------------------------------|
G|-12b14-12----------12p10-12p10-------------------------3-------5-----------|
D|-------------------------------12-12-------------------3---3---5-----------|
A|-------------------------------------------------------1---3---3-----------|
E|-----------------------------------------------------------1---------------|

e|-10--12-13-----12-13-------15/17-15--10/12-10------10----10-12-13-12-10----|
B|-----------11~-------10~----------------------13------13----------------13-|
G|---------------------------------------------------------------------------|
D|---------------------------------------------------------------------------|
A|---------------------------------------------------------------------------|
E|---------------------------------------------------------------------------|

e|-10--12-13-----12-13-------15/17-15--10/12-10------10----10-12-13-12-10----|
B|-----------11~-------10~----------------------13------13----------------13-|
G|---------------------------------------------------------------------------|
D|---------------------------------------------------------------------------|
A|---------------------------------------------------------------------------|
E|---------------------------------------------------------------------------|

e|-t10p5h8t10p5h8t10p5h8t10p5h8t10p5h8t10p5h8t10p5h8t10p5h8------------------|
B|---------------------------------------------------------------------------|
G|---------------------------------------------------------------------------|
D|---------------------------------------------------------------------------|
A|---------------------------------------------------------------------------|
E|---------------------------------------------------------------------------|

e|-t13p5h8t13p5h8t13p5h8t13p5h8t13p5h8t13p5h8t13p5h8t13p5h8------------------|
B|---------------------------------------------------------------------------|
G|---------------------------------------------------------------------------|
D|---------------------------------------------------------------------------|
A|---------------------------------------------------------------------------|
E|---------------------------------------------------------------------------|

e|-t17p13p10t17p13p10t17p13p10t17p13p10t17p13p10t17p13p10t17p13p10t17p13p10--|
B|---------------------------------------------------------------------------|
G|---------------------------------------------------------------------------|
D|---------------------------------------------------------------------------|
A|---------------------------------------------------------------------------|
E|---------------------------------------------------------------------------|

e|-t15p13p10t15p13p10t15p13p10t15p13p10--------------------------------------|
B|---------------------------------------------------------------------------|
G|---------------------------------------------------------------------------|
D|---------------------------------------------------------------------------|
A|---------------------------------------------------------------------------|
E|---------------------------------------------------------------------------|

   (these few notes are slower than the rest of the tapping)
e|-t15-p13-p10-h13-t15-p13-p10-----------------------------------------------|
B|---------------------------------------------------------------------------|
G|---------------------------------------------------------------------------|
D|---------------------------------------------------------------------------|
A|---------------------------------------------------------------------------|
E|---------------------------------------------------------------------------|

e|-10------10------10----10----10----10--------------------------------------|
B|-13b15---13b15---13b15-13b15-13b15-13b15-----------------------------------|
G|---------------------------------------------------------------------------|
D|---------------------------------------------------------------------------|
A|---------------------------------------------------------------------------|
E|---------------------------------------------------------------------------|

e|-12------12------12----12----12----12--------------------------------------|
B|-15b17---15b17---15b17-15b17-15b17-15b17-----------------------------------|
G|---------------------------------------------------------------------------|
D|---------------------------------------------------------------------------|
A|---------------------------------------------------------------------------|
E|---------------------------------------------------------------------------|

e|-13------13------13----13----13----13--------------------------------------|
B|-16b18---16b18---16b18-16b18-16b18-16b18-----------------------------------|
G|---------------------------------------------------------------------------|
D|---------------------------------------------------------------------------|
A|---------------------------------------------------------------------------|
E|---------------------------------------------------------------------------|

e|-15------15------15----15----15----15--------------------------------------|
B|-18b20---18b20---18b20-18b20-18b20-18b20-----------------------------------|
G|---------------------------------------------------------------------------|
D|---------------------------------------------------------------------------|
A|---------------------------------------------------------------------------|
E|---------------------------------------------------------------------------|

e|-20b22--20b22--20b22-20b22---20b22-20b22-20b22-----------------------------|
B|------------------------------------------(hold note for a very long time)-|
G|---------------------------------------------------------------------------|
D|-------------------------------------------------------(feedback)----------|
A|---------------------------------------------------------------------------|
E|------------------------------------------------------------------ssssssss-|

| /  slide up
| \  slide down
| h  hammer-on
| p  pull-off
| ~  vibrato
| +  harmonic
| x  Mute note
| s  Pick slide
| *  pinch harmonic
Tap to rate this tab
 
# A B C D E F G H I J K L M N O P Q R S T U V W X Y Z