Song name
# A B C D E F G H I J K L M N O P Q R S T U V W X Y Z

Black Tide - That Fire tab

----------------------------------------------------------------------------
                                 That Fire
                                 Black Tide
----------------------------------------------------------------------------

To start off, I just am amazed on how much Black Tide has changed, and I do think it was
helpful. Their new album is so incredible! I started learning this song a couple days
after it came out, and knew it was going to be a great song to play. Because I thought 
it would be difficult for someone to learn it by ear, I thought I would just make the tabs
for it along with the covers. Enjoy!

Username: dkm817 (same on X box live)
Youtube Guitar Cover: http://www.youtube.com/watch?v=wX-_Wlc-cJA
Email: guitardrums@rockfan.com

Tab Guide...

==================================================================
(end of measures)

==================================================================
==================================================================
(end of parts)

==================================================================
==================================================================
==================================================================
(end of song)

(If there is a “continued” it is because the numbers could not
fit on 1 line.)

Guitar 1 Rhythmic         (C G C F A D) [I know they play in Standard D,
Guitar 2 Lead             (C G C F A D)  but I tab songs in Drop C if it
Guitar 3 Back up          (C G C F A D)  is possible to play.]
Guitar 4 Acoustic         (E A D G B E) - Standard Tuning

Intro 1

Guitar 1 & 2
D-7~~~~~~~\~~~~~~~~~~~~~~~------------------------------------7~~-|
A-7~~~~~~~\~~~~~~~~~~~~~~~------------------------------------7~~-|
F-x-----------------------------------------------------------x---|
C-6~~~~~~~\~~~~~~~~~~~~~~~------------------------------------6~~-|
G-6~~~~~~~\~~~~~~~~~~~~~~~------------------------------------6~~-|
C-6~~~~~~~\~~~~~~~~~~~~~~~------------------------------------6~~-|

Guitar 4
E-----------------------------------------------------------------|
B-6~~-6-6-x-x-6~~-6-6-x-x-6-6-x-x-5~~-5-5-x-x-5~~-5-5-x-x-5-5-x-x-|
G-7~~-7-7-x-x-7~~-7-7-x-x-7-7-x-x-6~~-6-6-x-x-6~~-6-6-x-x-6-6-x-x-|
D-5~~-5-5-x-x-5~~-5-5-x-x-5-5-x-x-5~~-5-5-x-x-5~~-5-5-x-x-5-5-x-x-|
A-5~~-5-5-x-x-5~~-5-5-x-x-5-5-x-x-5~~-5-5-x-x-5~~-5-5-x-x-5-5-x-x-|
E-----------------------------------------------------------------|

==================================================================

Guitar 1 & 2
D-7~~~~~~~\~~~~~~~~~~~~~~~----------------------------------------|
A-7~~~~~~~\~~~~~~~~~~~~~~~----------------------------------------|
F-x---------------------------------------------------------------|
C-6~~~~~~~\~~~~~~~~~~~~~~~----------------------------------------|
G-6~~~~~~~\~~~~~~~~~~~~~~~----------------------------------------|
C-6~~~~~~~\~~~~~~~~~~~~~~~----------------------------------------|

Guitar 4
E-----------------------------------------------------------------|
B-6~~-6-6-x-x-6~~-6-6-x-x-6-6-x-x-5~~-5-5-x-x-5~~-5-5-x-x-5-5-x-x-|
G-7~~-7-7-x-x-7~~-7-7-x-x-7-7-x-x-6~~-6-6-x-x-6~~-6-6-x-x-6-6-x-x-|
D-5~~-5-5-x-x-5~~-5-5-x-x-5-5-x-x-5~~-5-5-x-x-5~~-5-5-x-x-5-5-x-x-|
A-5~~-5-5-x-x-5~~-5-5-x-x-5-5-x-x-5~~-5-5-x-x-5~~-5-5-x-x-5-5-x-x-|
E-----------------------------------------------------------------|

==================================================================

Guitar 1 & 2
D-7~~~~~~~\~~~~~~~~~~~~~~~----7~~-7~~~~~~~\~~~~~~~~~~~~~~~--------|
A-7~~~~~~~\~~~~~~~~~~~~~~~----7~~-7~~~~~~~\~~~~~~~~~~~~~~~--------|
F-x---------------------------x---x-------------------------------|
C-6~~~~~~~\~~~~~~~~~~~~~~~----6~~-6~~~~~~~\~~~~~~~~~~~~~~~--------|
G-6~~~~~~~\~~~~~~~~~~~~~~~----6~~-6~~~~~~~\~~~~~~~~~~~~~~~--------|
C-6~~~~~~~\~~~~~~~~~~~~~~~----6~~-6~~~~~~~\~~~~~~~~~~~~~~~--------|

Guitar 4
E-----------------------------------------------------------------|
B-6~~-6-6-x-x-6~~-6-6-x-x-6-6-x-x-5~~-5-5-x-x-5~~-5-5-x-x-5-5-x-x-|
G-7~~-7-7-x-x-7~~-7-7-x-x-7-7-x-x-6~~-6-6-x-x-6~~-6-6-x-x-6-6-x-x-|
D-5~~-5-5-x-x-5~~-5-5-x-x-5-5-x-x-5~~-5-5-x-x-5~~-5-5-x-x-5-5-x-x-|
A-5~~-5-5-x-x-5~~-5-5-x-x-5-5-x-x-5~~-5-5-x-x-5~~-5-5-x-x-5-5-x-x-|
E-----------------------------------------------------------------|

==================================================================

D-7~~~~~~~\~~~~~~~~~~~~~~~----7~~-7~~~~~~~\~~~~~~~~~~~~~~~--------|
A-7~~~~~~~\~~~~~~~~~~~~~~~----7~~-7~~~~~~~\~~~~~~~~~~~~~~~--------|
F-x---------------------------x---x-------------------------------|
C-6~~~~~~~\~~~~~~~~~~~~~~~----6~~-6~~~~~~~\~~~~~~~~~~~~~~~--------|
G-6~~~~~~~\~~~~~~~~~~~~~~~----6~~-6~~~~~~~\~~~~~~~~~~~~~~~--------|
C-6~~~~~~~\~~~~~~~~~~~~~~~----6~~-6~~~~~~~\~~~~~~~~~~~~~~~--------|

Guitar 4
E-----------------------------------------------------------------|
B-6~~-6-6-x-x-6~~-6-6-x-x-6-6-x-x-5~~-5-5-x-x-5~~-5-5-x-x-5-5-x-x-|
G-7~~-7-7-x-x-7~~-7-7-x-x-7-7-x-x-6~~-6-6-x-x-6~~-6-6-x-x-6-6-x-x-|
D-5~~-5-5-x-x-5~~-5-5-x-x-5-5-x-x-5~~-5-5-x-x-5~~-5-5-x-x-5-5-x-x-|
A-5~~-5-5-x-x-5~~-5-5-x-x-5-5-x-x-5~~-5-5-x-x-5~~-5-5-x-x-5-5-x-x-|
E-----------------------------------------------------------------|

==================================================================
==================================================================

Intro 2

Guitar 4
E---------------------------------0~~~~~~~~~~~~~~~~~~~~~~~~~~~~~~-
B-6~~~~~~~~~~~~~~~~~~~~~~~~~~~~~~-5~~~~~~~~~~~~~~~~~~~~~~~~~~~~~~-
G-7~~~~~~~~~~~~~~~~~~~~~~~~~~~~~~-6~~~~~~~~~~~~~~~~~~~~~~~~~~~~~~-
D-5~~~~~~~~~~~~~~~~~~~~~~~~~~~~~~-5~~~~~~~~~~~~~~~~~~~~~~~~~~~~~~-
A-5~~~~~~~~~~~~~~~~~~~~~~~~~~~~~~-5~~~~~~~~~~~~~~~~~~~~~~~~~~~~~~-
E-----------------------------------------------------------------

==================================================================

Guitar 4
E---------------------------------0~~~~~~~~~~~~~~~~~~~~~~~~~~~~~~-
B-6~~~~~~~~~~~~~~~~~~~~~~~~~~~~~~-5~~~~~~~~~~~~~~~~~~~~~~~~~~~~~~-
G-7~~~~~~~~~~~~~~~~~~~~~~~~~~~~~~-6~~~~~~~~~~~~~~~~~~~~~~~~~~~~~~-
D-5~~~~~~~~~~~~~~~~~~~~~~~~~~~~~~-5~~~~~~~~~~~~~~~~~~~~~~~~~~~~~~-
A-5~~~~~~~~~~~~~~~~~~~~~~~~~~~~~~-5~~~~~~~~~~~~~~~~~~~~~~~~~~~~~~-
E-----------------------------------------------------------------

==================================================================
==================================================================

Bridge

Guitar 1
D-----------------------------------------------------------------|
A-----------------------------------------------------------------|
F-----------------------------------------------------------------|
C-6~~~~-4~~~~-6~~-9~~~~~~-6~~~~~~~\~~-----------------------------|
G-6~~~~-4~~~~-6~~-9~~~~~~-6~~~~~~~\~~-4-6-*4~~~~~-----2-4---------|
C-6~~~~-4~~~~-6~~-9~~~~~~-6~~~~~~~\~~-------------4-4-----4~~~~~~-|
pm                                                . .

Guitar 2
D-----------------------------------------------------------------|
A-----------------------------------------------------------------|
F-----------------------------------------------------------------|
C-6~~~~-4~~~~-6~~-9~~~~~~-6~~~~~~~\~~-----------------------------|
G-6~~~~-4~~~~-6~~-9~~~~~~-6~~~~~~~\~~-4-6-4~~~~~~-----2-4---------|
C-6~~~~-4~~~~-6~~-9~~~~~~-6~~~~~~~\~~-------------4-4-----4~~~~~~-|
pm                                                . .

==================================================================

Guitar 1
D-----------------------------------------------------------------|
A-----------------------------------------------------------------|
F-----------------------------------------------------------------|
C-6~~~~-4~~~~-6~~-9~~~~~~-6~~~~~~~~~~-2---------------------------|
G-6~~~~-4~~~~-6~~-9~~~~~~-6~~~~~~~~~~-------6-----4---2---2h4p2---|
C-6~~~~-4~~~~-6~~-9~~~~~~-6~~~~~~~~~~---2-2---2-2---2---2-------6-|
pm                                      . .   . .   .   .

Guitar 2
D-----------------------------------------------------------------|
A-----------------------------------------------------------------|
F-----------------------------------------------------------------|
C-6~~~~-4~~~~-6~~-9~~~~~~-6~~~~~~~~~~-6-----4-----2---------------|
G-6~~~~-4~~~~-6~~-9~~~~~~-6~~~~~~~~~~-----------------6---6h7p6-4-|
C-6~~~~-4~~~~-6~~-9~~~~~~-6~~~~~~~~~~---2-2---2-2---2---2---------|
pm                                      . .   . .   .   .

==================================================================

Guitar 1
D-----------------------------------------------------------------|
A-----------------------------------------------------------------|
F-----------------------------------------------------------------|
C-6~~~~-4~~~~-6~~-9~~~~~~-6~~~~~~~\~~-----------------------------|
G-6~~~~-4~~~~-6~~-9~~~~~~-6~~~~~~~\~~-4-6-*4~~~~~-----2-4---------|
C-6~~~~-4~~~~-6~~-9~~~~~~-6~~~~~~~\~~-------------4-4-----*4~~b~~-|
pm                                                . .

Guitar 2
D-----------------------------------------------------------------|
A-----------------------------------------------------------------|
F-----------------------------------------------------------------|
C-6~~~~-4~~~~-6~~-9~~~~~~-6~~~~~~~\~~-----------------------------|
G-6~~~~-4~~~~-6~~-9~~~~~~-6~~~~~~~\~~-4-6-4~~~~~~-----2-4---------|
C-6~~~~-4~~~~-6~~-9~~~~~~-6~~~~~~~\~~-------------4-4-----4~~~~~~-|
pm                                                . .

==================================================================

Guitar 1
D-----------------------------------------------------------------|
A-----------------------------------------------------------------|
F-----------------------------------------------------------------|
C-6~~~~-4~~~~-6~~-9~~~~~~-6~~~~~~~~~~-2---------------------------|
G-6~~~~-4~~~~-6~~-9~~~~~~-6~~~~~~~~~~-------6-----4---2---2h4p2---|
C-6~~~~-4~~~~-6~~-9~~~~~~-6~~~~~~~~~~---2-2---2-2---2---2-------6-|
pm                                      . .   . .   .   .

Guitar 2
D-----------------------------------------------------------------|
A-----------------------------------------------------------------|
F-----------------------------------------------------------------|
C-6~~~~-4~~~~-6~~-9~~~~~~-6~~~~~~~~~~-6-----4-----2---------------|
G-6~~~~-4~~~~-6~~-9~~~~~~-6~~~~~~~~~~-----------------6---6h7p6-4-|
C-6~~~~-4~~~~-6~~-9~~~~~~-6~~~~~~~~~~---2-2---2-2---2---2---------|
pm                                      . .   . .   .   .

==================================================================
==================================================================

Verse 1

Guitar 1 & 2
D-----------------------------------------------------------------|
A-----------------------------------------------------------------|
F-----------------------------------------------------------------|
C-8~~~~-6~~~~-4~~~~~~~~~~-2-2-2-2----2-2-2-2------2-2-2-2-2-2-2-2-|
G-6~~~~-4~~~~-2~~~~~~~~~~-2-2-2-2----2-2-2-2------2-2-2-2-2-2-2-2-|
C-6~~~~-4~~~~-2~~~~~~~~~~-2-2-2-2----2-2-2-2------2-2-2-2-2-2-2-2-|
pm                        . . . .    . . . .      . . . . . . . .

==================================================================

Guitar 1 & 2
D-----------------------------------------------------------------|
A-----------------------------------------------------------------|
F-----------------------------------------------------------------|
C-8~~~~-6~~~~-11~~~~~~~~~-9-9-9-9----9-9-9-9------9-9-9-9-9-9-9-9-|
G-6~~~~-4~~~~-9~~~~~~~~~~-9-9-9-9----9-9-9-9------9-9-9-9-9-9-9-9-|
C-6~~~~-4~~~~-9~~~~~~~~~~-9-9-9-9----9-9-9-9------9-9-9-9-9-9-9-9-|
pm                        . . . .    . . . .      . . . . . . . .

==================================================================

Guitar 1 & 2
D-----------------------------------------------------------------|
A-----------------------------------------------------------------|
F-----------------------------------------------------------------|
C-8~~~~-6~~~~-4~~~~~~~~~~-2-2-2-2----2-2-2-2------2-2-2-2-2-2-2-2-|
G-6~~~~-4~~~~-2~~~~~~~~~~-2-2-2-2----2-2-2-2------2-2-2-2-2-2-2-2-|
C-6~~~~-4~~~~-2~~~~~~~~~~-2-2-2-2----2-2-2-2------2-2-2-2-2-2-2-2-|
pm                        . . . .    . . . .      . . . . . . . .

==================================================================

Guitar 1
D-----------------------------------------------------------------|
A-----------------------------------------------------------------|
F-----------------------------------------------------------------|
C-8~~~~-6~~~~-11~~~~~~~~~-9-9-9-9----9-9-9-9------9-9-9-9-9-9-9-9-|
G-6~~~~-4~~~~-9~~~~~~~~~~-9-9-9-9----9-9-9-9------9-9-9-9-9-9-9-9-|
C-6~~~~-4~~~~-9~~~~~~~~~~-9-9-9-9----9-9-9-9------9-9-9-9-9-9-9-9-|
pm                        . . . .    . . . .      . . . . . . . .

Guitar 2
D-----------------------------------------------------------------|
A-----------------------------------------------------------------|
F-------------------------------------------------4-3-------------|
C-8~~~~-6~~~~-11~~~~~~~~~-9-9-9-9----9-9-9-9----------4-1---------|
G-6~~~~-4~~~~-9~~~~~~~~~~-9-9-9-9----9-9-9-9--------------2-4~~-1-|
C-6~~~~-4~~~~-9~~~~~~~~~~-9-9-9-9----9-9-9-9----------------------|
pm                        . . . .    . . . .

==================================================================
==================================================================

Pre Chorus 1 (It goes the same speed, I just spread the numbers a bit.)

Guitar 1 (x3)
D-----------------------------------------------------------------|
A-----------------------------------------------------------------|
F-----------------------------------------------------------------|
C-11~~~~~~~~~~-9---9---11~~~~~~~~~~~~~~~~-9---9---9---9---9---9---|
G-9~~~~~~~~~~~-9---9---9~~~~~~~~~~~~~~~~~-9---9---9---9---9---9---|
C-9~~~~~~~~~~~-9---9---9~~~~~~~~~~~~~~~~~-9---9---9---9---9---9---|
pm             .   .                      .   .   .   .   .   .

Guitar 2
D-----------------------------------------------------------------|
A-----------------------------------------------------------------|
F-----------------------------------------------------------------|
C-----------------------------------------------------------------|
G-2~~~~~~~~~~~~~~~~~~~~~~~~~~~~~~~~~~~~~~~~~~~~~~~~~~~~~~~~~~~~~~-
C-----------------------------------------------------------------

==================================================================

Guitar 1
D-----------------------------------------------------------------|
A-----------------------------------------------------------------|
F-----------------------------------------------------------------|
C-9-------9-------9-------9-------9-------9-------9-------9-------|
G-9-------9-------9-------9-------9-------9-------9-------9-------|
C-9-------9-------9-------9-------9-------9-------9-------9-------|
pm.       .       .       .       .       .       .       .

Guitar 2 & 3
D-----------------------------------------------------------------|
A-----------------------------------------------------------------|
F-----------------------------------------------------------------|
C-------------------------------------------------\~~~~~~~~~~~~~~-|
G-------------------------------------------------\~~~~~~~~~~~~~~-|
C-------------------------------------------------\~~~~~~~~~~~~~~-|

==================================================================
==================================================================

Chorus 1

Guitar 1
D-----------------------------------------------------------------|
A-----------------------------------------------------------------|
F-----------------------------------------------------------------|
C-6~~~~~~~~~~~~~~~~~~~~~~~~~~~~~~-4~~~~~~~~~~~~~~~~~~~~~~~~~~~~~~-
G-6~~~~~~~~~~~~~~~~~~~~~~~~~~~~~~-4~~~~~~~~~~~~~~~~~~~~~~~~~~~~~~-
C-6~~~~~~~~~~~~~~~~~~~~~~~~~~~~~~-4~~~~~~~~~~~~~~~~~~~~~~~~~~~~~~-

Guitar 2
D-----------------------------------------------------------------|
A-12--12--x-x-12--12--x-x-12--x---10--10--x-x-10--10--x-x-10--x---|
F-x---x---x-x-x---x---x-x-x---x---x---x---x-x-x---x---x-x-x---x---|
C-9---9---x-x-9---9---x-x-9---x---7---7---x-x-7---7---x-x-7---x---|
G-----------------------------------------------------------------|
C-----------------------------------------------------------------|

Guitar 3
D-----------------------------------------------------------------|
A-9---9---x-x-9---9---x-x-9---x---7---7---x-x-7---7---x-x-7---x---|
F-x---x---x-x-x---x---x-x-x---x---x---x---x-x-x---x---x-x-x---x---|
C-6---6---x-x-6---6---x-x-6---x---4---4---x-x-4---4---x-x-4---x---|
G-----------------------------------------------------------------|
C-----------------------------------------------------------------|

==================================================================

Guitar 1
D-----------------------------------------------------------------|
A-----------------------------------------------------------------|
F-4~~~~~~~~~~~~~~~~~~~~~~~~~~~~~~-6~~~~~~~~~~~~~~~~~~~~~~~~~~~~~~-
C-4~~~~~~~~~~~~~~~~~~~~~~~~~~~~~~-6~~~~~~~~~~~~~~~~~~~~~~~~~~~~~~-
G-2~~~~~~~~~~~~~~~~~~~~~~~~~~~~~~-4~~~~~~~~~~~~~~~~~~~~~~~~~~~~~~-
C-----------------------------------------------------------------

Guitar 2
D---------------------------------11--11--x-x-9---9---x-x-9---x---|
A-12--12--x-x-12--12--x-x-12--x---x---x---x-x-x---x---x-x-x---x---|
F-x---x---x-x-x---x---x-x-x---x---8---8---x-x-8---8---x-x-8---x---|
C-9---9---x-x-9---9---x-x-9---x-----------------------------------|
G-----------------------------------------------------------------|
C-----------------------------------------------------------------|

Guitar 3
D---------------------------------9---9---x-x-11--11--x-x-11--x---|
A-9---9---x-x-9---9---x-x-9---x---x---x---x-x-x---x---x-x-x---x---|
F-x---x---x-x-x---x---x-x-x---x---6---6---x-x-8---8---x-x-8---x---|
C-6---6---x-x-6---6---x-x-6---x-----------------------------------|
G-----------------------------------------------------------------|
C-----------------------------------------------------------------|

==================================================================

Guitar 1
D-----------------------------------------------------------------|
A-----------------------------------------------------------------|
F-----------------------------------------------------------------|
C-6~~~~~~~~~~~~~~~~~~~~~~~~~~~~~~-4~~~~~~~~~~~~~~~~~~~~~~~~~~~~~~-
G-6~~~~~~~~~~~~~~~~~~~~~~~~~~~~~~-4~~~~~~~~~~~~~~~~~~~~~~~~~~~~~~-
C-6~~~~~~~~~~~~~~~~~~~~~~~~~~~~~~-4~~~~~~~~~~~~~~~~~~~~~~~~~~~~~~-

Guitar 2
D-----------------------------------------------------------------|
A-12--12--x-x-12--12--x-x-12--x---10--10--x-x-10--10--x-x-10--x---|
F-x---x---x-x-x---x---x-x-x---x---x---x---x-x-x---x---x-x-x---x---|
C-9---9---x-x-9---9---x-x-9---x---7---7---x-x-7---7---x-x-7---x---|
G-----------------------------------------------------------------|
C-----------------------------------------------------------------|

Guitar 3
D-----------------------------------------------------------------|
A-9---9---x-x-9---9---x-x-9---x---7---7---x-x-7---7---x-x-7---x---|
F-x---x---x-x-x---x---x-x-x---x---x---x---x-x-x---x---x-x-x---x---|
C-6---6---x-x-6---6---x-x-6---x---4---4---x-x-4---4---x-x-4---x---|
G-----------------------------------------------------------------|
C-----------------------------------------------------------------|

==================================================================

Guitar 1
D-----------------------------------------------------------------|
A-----------------------------------------------------------------|
F-4~~~~~~~~~~~~~~~~~~~~~~~~~~~~~~---------------------------------|
C-4~~~~~~~~~~~~~~~~~~~~~~~~~~~~~~---------------------------------|
G-2~~~~~~~~~~~~~~~~~~~~~~~~~~~~~~---------------------------------|
C-----------------------------------------------------------------|

Guitar 2
D---------------------------------|
A-12--12--x-x-12--12--x-x-12--x---|
F-x---x---x-x-x---x---x-x-x---x---|
C-9---9---x-x-9---9---x-x-9---x---|
G---------------------------------|
C---------------------------------|

Guitar 2 continued (Very fast, but possible. I do it in my cover.)
D-19p16p14-----------------------------------------------------------------|
A----------16p14p12-19p16p14p----------------------------------------------|
F-----------------------------16p13p11-18p16p13----------------------------|
C-----------------------------------------------16p13p11-18p16p13----------|
G-----------------------------------------------------------------16p14p13-|
C--------------------------------------------------------------------------|


Guitar 3
D---------------------------------|
A-9---9---x-x-9---9---x-x-9---x---|
F-x---x---x-x-x---x---x-x-x---x---|
C-6---6---x-x-6---6---x-x-6---x---|
G---------------------------------|
C---------------------------------|

Guitar 3 continued
D--------------------------------------------------------------------------|
A--------------------------------------------------------------------------|
F--------------------------------------------------------------------------|
C-16p13p11----------13p11p9------------11p9p8------------9p8p6-------------|
G----------14p13p11-----------13p11p9-----------11p9p8------------9p8p6----|
C--------------------------------------------------------------------------|

==================================================================
==================================================================

Bridge

Guitar 1
D-----------------------------------------------------------------|
A-----------------------------------------------------------------|
F-----------------------------------------------------------------|
C-6~~~~-4~~~~-6~~-9~~~~~~-6~~~~~~~\~~-----------------------------|
G-6~~~~-4~~~~-6~~-9~~~~~~-6~~~~~~~\~~-4-6-*4~~~~~-----2-4---------|
C-6~~~~-4~~~~-6~~-9~~~~~~-6~~~~~~~\~~-------------4-4-----4~~~~~~-|
pm                                                . .

Guitar 2
D-----------------------------------------------------------------|
A-----------------------------------------------------------------|
F-----------------------------------------------------------------|
C-----------------------------------------------------------------|
G-11~~~~~~~~~~~~~~~~~~~~~~~~~~~~~~\~~-4-6-4~~~~~~-----2-4---------|
C-------------------------------------------------4-4-----4~~~~~~-|
pm                                                . .

Guitar 3
D-----------------------------------------------------------------|
A-----------------------------------------------------------------|
F-----------------------------------------------------------------|
C-----------------------------------------------------------------|
G-----------------------------------------------------------------|
C-6~~~~~~~~~~~~~~~~~~~~~~~~~~~~~~~\~~-----------------------------|

==================================================================

Guitar 1
D-----------------------------------------------------------------|
A-----------------------------------------------------------------|
F-----------------------------------------------------------------|
C-6~~~~-4~~~~-6~~-9~~~~~~-6~~~~~~~~~~-2---------------------------|
G-6~~~~-4~~~~-6~~-9~~~~~~-6~~~~~~~~~~-------6-----4---2---2h4p2---|
C-6~~~~-4~~~~-6~~-9~~~~~~-6~~~~~~~~~~---2-2---2-2---2---2-------6-|
pm                                      . .   . .   .   .

Guitar 2
D-----------------------------------------------------------------|
A-----------------------------------------------------------------|
F-----------------------------------------------------------------|
C-6~~~~-4~~~~-6~~-9~~~~~~-6~~~~~~~~~~-6-----4-----2---------------|
G-6~~~~-4~~~~-6~~-9~~~~~~-6~~~~~~~~~~-----------------6---6h7p6-4-|
C-6~~~~-4~~~~-6~~-9~~~~~~-6~~~~~~~~~~---2-2---2-2---2---2---------|
pm                                      . .   . .   .   .

==================================================================

Guitar 1
D-----------------------------------------------------------------|
A-----------------------------------------------------------------|
F-----------------------------------------------------------------|
C-6~~~~-4~~~~-6~~-9~~~~~~-6~~~~~~~\~~-----------------------------|
G-6~~~~-4~~~~-6~~-9~~~~~~-6~~~~~~~\~~-4-6-*4~~~~~-----2-4---------|
C-6~~~~-4~~~~-6~~-9~~~~~~-6~~~~~~~\~~-------------4-4-----*4~~b~~-|
pm                                                . .

Guitar 2
D-----------------------------------------------------------------|
A-----------------------------------------------------------------|
F-----------------------------------------------------------------|
C-6~~~~-4~~~~-6~~-9~~~~~~-6~~~~~~~\~~-----------------------------|
G-6~~~~-4~~~~-6~~-9~~~~~~-6~~~~~~~\~~-4-6-4~~~~~~-----2-4---------|
C-6~~~~-4~~~~-6~~-9~~~~~~-6~~~~~~~\~~-------------4-4-----4~~~~~~-|
pm                                                . .

==================================================================

Guitar 1
D-----------------------------------------------------------------|
A-----------------------------------------------------------------|
F-----------------------------------------------------------------|
C-6~~~~-4~~~~-6~~-9~~~~~~-6~~~~~~~~~~-2---------------------------|
G-6~~~~-4~~~~-6~~-9~~~~~~-6~~~~~~~~~~-------6-----4---2---2h4p2---|
C-6~~~~-4~~~~-6~~-9~~~~~~-6~~~~~~~~~~---2-2---2-2---2---2-------6-|
pm                                      . .   . .   .   .

Guitar 2
D-----------------------------------------------------------------|
A-----------------------------------------------------------------|
F-----------------------------------------------------------------|
C-6~~~~-4~~~~-6~~-9~~~~~~-6~~~~~~~~~~-6-----4-----2---------------|
G-6~~~~-4~~~~-6~~-9~~~~~~-6~~~~~~~~~~-----------------6---6h7p6-4-|
C-6~~~~-4~~~~-6~~-9~~~~~~-6~~~~~~~~~~---2-2---2-2---2---2---------|
pm                                      . .   . .   .   .

==================================================================
==================================================================

Verse 2

Guitar 1 & 2
D-----------------------------------------------------------------|
A-----------------------------------------------------------------|
F-----------------------------------------------------------------|
C-8~~~~-6~~~~-4~~~~~~~~~~-2-2-2-2----2-2-2-2------2-2-2-2-2-2-2-2-|
G-6~~~~-4~~~~-2~~~~~~~~~~-2-2-2-2----2-2-2-2------2-2-2-2-2-2-2-2-|
C-6~~~~-4~~~~-2~~~~~~~~~~-2-2-2-2----2-2-2-2------2-2-2-2-2-2-2-2-|
pm                        . . . .    . . . .      . . . . . . . .

==================================================================

Guitar 1 & 2
D-----------------------------------------------------------------|
A-----------------------------------------------------------------|
F-----------------------------------------------------------------|
C-8~~~~-6~~~~-11~~~~~~~~~-9-9-9-9----9-9-9-9------9-9-9-9-9-9-9-9-|
G-6~~~~-4~~~~-9~~~~~~~~~~-9-9-9-9----9-9-9-9------9-9-9-9-9-9-9-9-|
C-6~~~~-4~~~~-9~~~~~~~~~~-9-9-9-9----9-9-9-9------9-9-9-9-9-9-9-9-|
pm                        . . . .    . . . .      . . . . . . . .

==================================================================

Guitar 1 & 2
D-----------------------------------------------------------------|
A-----------------------------------------------------------------|
F-----------------------------------------------------------------|
C-8~~~~-6~~~~-4~~~~~~~~~~-2-2-2-2----2-2-2-2------2-2-2-2-2-2-2-2-|
G-6~~~~-4~~~~-2~~~~~~~~~~-2-2-2-2----2-2-2-2------2-2-2-2-2-2-2-2-|
C-6~~~~-4~~~~-2~~~~~~~~~~-2-2-2-2----2-2-2-2------2-2-2-2-2-2-2-2-|
pm                        . . . .    . . . .      . . . . . . . .

==================================================================

Guitar 1
D-----------------------------------------------------------------|
A-----------------------------------------------------------------|
F-----------------------------------------------------------------|
C-8~~~~-6~~~~-11~~~~~~~~~-9-9-9-9----9-9-9-9------9-9-9-9-9-9-9-9-|
G-6~~~~-4~~~~-9~~~~~~~~~~-9-9-9-9----9-9-9-9------9-9-9-9-9-9-9-9-|
C-6~~~~-4~~~~-9~~~~~~~~~~-9-9-9-9----9-9-9-9------9-9-9-9-9-9-9-9-|
pm                        . . . .    . . . .      . . . . . . . .

Guitar 2
D-------------------------------------------------------------------------|
A-------------------------------------------------------------------------|
F-------------------------------------------------------------------------|
C-8~~~~-6~~~~-11~~~~~~~~~-9-9-9-9----9-9-9-9------9p8p6-------8p6p4-------|
G-6~~~~-4~~~~-9~~~~~~~~~~-9-9-9-9----9-9-9-9------------9p8p6-------8p6p4-|
C-6~~~~-4~~~~-9~~~~~~~~~~-9-9-9-9----9-9-9-9------------------------------|
pm                        . . . .    . . . .

==================================================================
==================================================================

Pre Chorus 2

Guitar 1 (x4)
D-----------------------------------------------------------------|
A-----------------------------------------------------------------|
F-----------------------------------------------------------------|
C-11~~~~~~~~~~-9---9---11~~~~~~~~~~~~~~~~-9---9---9---9---9---9---|
G-9~~~~~~~~~~~-9---9---9~~~~~~~~~~~~~~~~~-9---9---9---9---9---9---|
C-9~~~~~~~~~~~-9---9---9~~~~~~~~~~~~~~~~~-9---9---9---9---9---9---|
pm             .   .                      .   .   .   .   .   .

Guitar 2
D-----------------------------------------------------------------|
A-----------------------------------------------------------------|
F-----------------------------------------------------------------|
C-----------------------------------------------------------------|
G-2~~~~~~~~~~~~~~~~~~~~~~~~~~~~~~~~~~~~~~~~~~~~~~~~~~~~~~~~~~~~~~-
C-----------------------------------------------------------------

==================================================================

Guitar 1 (x2)
D-----------------------------------------------------------------|
A-----------------------------------------------------------------|
F-----------------------------------------------------------------|
C-11~~~~~~~~~~-9---9---11~~~~~~~~~~~~~~~~-9---9---9---9---9---9---|
G-9~~~~~~~~~~~-9---9---9~~~~~~~~~~~~~~~~~-9---9---9---9---9---9---|
C-9~~~~~~~~~~~-9---9---9~~~~~~~~~~~~~~~~~-9---9---9---9---9---9---|
pm             .   .                      .   .   .   .   .   .

Guitar 1 (x2)
D-----------------------------------------------------------------|
A-----------------------------------------------------------------|
F-11~~~~~~~~~~-9---9---11~~~~~~~~~~~~~~~~-------------------------|
C-11~~~~~~~~~~-9---9---11~~~~~~~~~~~~~~~~-9---9---9---9---9---9---|
G-9~~~~~~~~~~~-9---9---9~~~~~~~~~~~~~~~~~-9---9---9---9---9---9---|
C-9~~~~~~~~~~~-9---9---9~~~~~~~~~~~~~~~~~-9---9---9---9---9---9---|
pm             .   .                      .   .   .   .   .   .

==================================================================

Guitar 1
D-----------------------------------------------------------------|
A-----------------------------------------------------------------|
F-----------------------------------------------------------------|
C-11~~~~~~~~~~~~~~~~~~~~~~~~~~~~~~~~~~~~~~~~~~~~~~~~~~~~~~~~~~~~~-
G-9~~~~~~~~~~~~~~~~~~~~~~~~~~~~~~~~~~~~~~~~~~~~~~~~~~~~~~~~~~~~~~-
C-9~~~~~~~~~~~~~~~~~~~~~~~~~~~~~~~~~~~~~~~~~~~~~~~~~~~~~~~~~~~~~~-

Guitar 2
D-----------------------------------------------------------------|
A-----------------------------------------------------------------|
F-11~~~~~~~~~~~~~~~~~~~~~~~~~~~~~~~~~~~~~~~~~~~~~~~~~~~~~~~~~~~~~-
C-11~~~~~~~~~~~~~~~~~~~~~~~~~~~~~~~~~~~~~~~~~~~~~~~~~~~~~~~~~~~~~-
G-9~~~~~~~~~~~~~~~~~~~~~~~~~~~~~~~~~~~~~~~~~~~~~~~~~~~~~~~~~~~~~~-
C-9~~~~~~~~~~~~~~~~~~~~~~~~~~~~~~~~~~~~~~~~~~~~~~~~~~~~~~~~~~~~~~-

==================================================================

Guitar 1
D-----------------------------------------------------------------|
A-----------------------------------------------------------------|
F-----------------------------------------------------------------|
C-9-------9-------9-------9-------9-------9-------\~~~~~~~~~~~~~~-|
G-9-------9-------9-------9-------9-------9-------\~~~~~~~~~~~~~~-|
C-9-------9-------9-------9-------9-------9-------\~~~~~~~~~~~~~~-|
pm.       .       .       .       .       .

Guitar 2 & 3
D-----------------------------------------------------------------|
A-----------------------------------------------------------------|
F-----------------------------------------------------------------|
C-------------------------------------------------\~~~~~~~~~~~~~~-|
G-------------------------------------------------\~~~~~~~~~~~~~~-|
C-------------------------------------------------\~~~~~~~~~~~~~~-|

==================================================================
==================================================================

Chorus 1

Guitar 1
D-----------------------------------------------------------------|
A-----------------------------------------------------------------|
F-----------------------------------------------------------------|
C-6~~~~~~~~~~~~~~~~~~~~~~~~~~~~~~-4~~~~~~~~~~~~~~~~~~~~~~~~~~~~~~-
G-6~~~~~~~~~~~~~~~~~~~~~~~~~~~~~~-4~~~~~~~~~~~~~~~~~~~~~~~~~~~~~~-
C-6~~~~~~~~~~~~~~~~~~~~~~~~~~~~~~-4~~~~~~~~~~~~~~~~~~~~~~~~~~~~~~-

Guitar 2
D-----------------------------------------------------------------|
A-12--12--x-x-12--12--x-x-12--x---10--10--x-x-10--10--x-x-10--x---|
F-x---x---x-x-x---x---x-x-x---x---x---x---x-x-x---x---x-x-x---x---|
C-9---9---x-x-9---9---x-x-9---x---7---7---x-x-7---7---x-x-7---x---|
G-----------------------------------------------------------------|
C-----------------------------------------------------------------|

Guitar 3
D-----------------------------------------------------------------|
A-9---9---x-x-9---9---x-x-9---x---7---7---x-x-7---7---x-x-7---x---|
F-x---x---x-x-x---x---x-x-x---x---x---x---x-x-x---x---x-x-x---x---|
C-6---6---x-x-6---6---x-x-6---x---4---4---x-x-4---4---x-x-4---x---|
G-----------------------------------------------------------------|
C-----------------------------------------------------------------|

==================================================================

Guitar 1
D-----------------------------------------------------------------|
A-----------------------------------------------------------------|
F-4~~~~~~~~~~~~~~~~~~~~~~~~~~~~~~-6~~~~~~~~~~~~~~~~~~~~~~~~~~~~~~-
C-4~~~~~~~~~~~~~~~~~~~~~~~~~~~~~~-6~~~~~~~~~~~~~~~~~~~~~~~~~~~~~~-
G-2~~~~~~~~~~~~~~~~~~~~~~~~~~~~~~-4~~~~~~~~~~~~~~~~~~~~~~~~~~~~~~-
C-----------------------------------------------------------------

Guitar 2
D---------------------------------11--11--x-x-9---9---x-x-9---x---|
A-12--12--x-x-12--12--x-x-12--x---x---x---x-x-x---x---x-x-x---x---|
F-x---x---x-x-x---x---x-x-x---x---8---8---x-x-8---8---x-x-8---x---|
C-9---9---x-x-9---9---x-x-9---x-----------------------------------|
G-----------------------------------------------------------------|
C-----------------------------------------------------------------|

Guitar 3
D---------------------------------9---9---x-x-11--11--x-x-11--x---|
A-9---9---x-x-9---9---x-x-9---x---x---x---x-x-x---x---x-x-x---x---|
F-x---x---x-x-x---x---x-x-x---x---6---6---x-x-8---8---x-x-8---x---|
C-6---6---x-x-6---6---x-x-6---x-----------------------------------|
G-----------------------------------------------------------------|
C-----------------------------------------------------------------|

==================================================================

Guitar 1
D-----------------------------------------------------------------|
A-----------------------------------------------------------------|
F-----------------------------------------------------------------|
C-6~~~~~~~~~~~~~~~~~~~~~~~~~~~~~~-4~~~~~~~~~~~~~~~~~~~~~~~~~~~~~~-
G-6~~~~~~~~~~~~~~~~~~~~~~~~~~~~~~-4~~~~~~~~~~~~~~~~~~~~~~~~~~~~~~-
C-6~~~~~~~~~~~~~~~~~~~~~~~~~~~~~~-4~~~~~~~~~~~~~~~~~~~~~~~~~~~~~~-

Guitar 2
D-----------------------------------------------------------------|
A-12--12--x-x-12--12--x-x-12--x---10--10--x-x-10--10--x-x-10--x---|
F-x---x---x-x-x---x---x-x-x---x---x---x---x-x-x---x---x-x-x---x---|
C-9---9---x-x-9---9---x-x-9---x---7---7---x-x-7---7---x-x-7---x---|
G-----------------------------------------------------------------|
C-----------------------------------------------------------------|

Guitar 3
D-----------------------------------------------------------------|
A-9---9---x-x-9---9---x-x-9---x---7---7---x-x-7---7---x-x-7---x---|
F-x---x---x-x-x---x---x-x-x---x---x---x---x-x-x---x---x-x-x---x---|
C-6---6---x-x-6---6---x-x-6---x---4---4---x-x-4---4---x-x-4---x---|
G-----------------------------------------------------------------|
C-----------------------------------------------------------------|

==================================================================

Guitar 1
D-----------------------------------------------------------------|
A-----------------------------------------------------------------|
F-4~~~~~~~~~~~~~~~~~~~~~~~~~~~~~~---------------------------------|
C-4~~~~~~~~~~~~~~~~~~~~~~~~~~~~~~---------------------------------|
G-2~~~~~~~~~~~~~~~~~~~~~~~~~~~~~~---------------------------------|
C-----------------------------------------------------------------|

Guitar 2
D---------------------------------|
A-12--12--x-x-12--12--x-x-12--x---|
F-x---x---x-x-x---x---x-x-x---x---|
C-9---9---x-x-9---9---x-x-9---x---|
G---------------------------------|
C---------------------------------|

Guitar 2 continued (Very fast, but possible. I do it in my cover.)
D-19p16p14-----------------------------------------------------------------|
A----------16p14p12-19p16p14p----------------------------------------------|
F-----------------------------16p13p11-18p16p13----------------------------|
C-----------------------------------------------16p13p11-18p16p13----------|
G-----------------------------------------------------------------16p14p13-|
C--------------------------------------------------------------------------|


Guitar 3
D---------------------------------|
A-9---9---x-x-9---9---x-x-9---x---|
F-x---x---x-x-x---x---x-x-x---x---|
C-6---6---x-x-6---6---x-x-6---x---|
G---------------------------------|
C---------------------------------|

Guitar 3 continued
D--------------------------------------------------------------------------|
A--------------------------------------------------------------------------|
F--------------------------------------------------------------------------|
C-16p13p11----------13p11p9------------11p9p8------------9p8p6-------------|
G----------14p13p11-----------13p11p9-----------11p9p8------------9p8p6----|
C--------------------------------------------------------------------------|

==================================================================
==================================================================

Bridge

Guitar 1
D-----------------------------------------------------------------|
A-----------------------------------------------------------------|
F-----------------------------------------------------------------|
C-6~~~~-4~~~~-6~~-9~~~~~~-6~~~~~~~\~~-----------------------------|
G-6~~~~-4~~~~-6~~-9~~~~~~-6~~~~~~~\~~-4-6-*4~~~~~-----2-4---------|
C-6~~~~-4~~~~-6~~-9~~~~~~-6~~~~~~~\~~-------------4-4-----4~~~~~~-|
pm                                                . .

Guitar 2
D-----------------------------------------------------------------|
A-----------------------------------------------------------------|
F-----------------------------------------------------------------|
C-----------------------------------------------------------------|
G-11~~~~~~~~~~~~~~~~~~~~~~~~~~~~~~\~~-4-6-4~~~~~~-----2-4---------|
C-------------------------------------------------4-4-----4~~~~~~-|
pm                                                . .

Guitar 3
D-----------------------------------------------------------------|
A-----------------------------------------------------------------|
F-----------------------------------------------------------------|
C-----------------------------------------------------------------|
G-----------------------------------------------------------------|
C-6~~~~~~~~~~~~~~~~~~~~~~~~~~~~~~~\~~-----------------------------|

==================================================================

Guitar 1
D-----------------------------------------------------------------|
A-----------------------------------------------------------------|
F-----------------------------------------------------------------|
C-6~~~~-4~~~~-6~~-9~~~~~~-6~~~~~~~~~~-2---------------------------|
G-6~~~~-4~~~~-6~~-9~~~~~~-6~~~~~~~~~~-------6-----4---2---2h4p2---|
C-6~~~~-4~~~~-6~~-9~~~~~~-6~~~~~~~~~~---2-2---2-2---2---2-------6-|
pm                                      . .   . .   .   .

Guitar 2
D-----------------------------------------------------------------|
A-----------------------------------------------------------------|
F-----------------------------------------------------------------|
C-6~~~~-4~~~~-6~~-9~~~~~~-6~~~~~~~~~~-6-----4-----2---------------|
G-6~~~~-4~~~~-6~~-9~~~~~~-6~~~~~~~~~~-----------------6---6h7p6-4-|
C-6~~~~-4~~~~-6~~-9~~~~~~-6~~~~~~~~~~---2-2---2-2---2---2---------|
pm                                      . .   . .   .   .

==================================================================

Guitar 1
D-----------------------------------------------------------------|
A-----------------------------------------------------------------|
F-----------------------------------------------------------------|
C-6~~~~-4~~~~-6~~-9~~~~~~-6~~~~~~~\~~-----------------------------|
G-6~~~~-4~~~~-6~~-9~~~~~~-6~~~~~~~\~~-4-6-*4~~~~~-----2-4---------|
C-6~~~~-4~~~~-6~~-9~~~~~~-6~~~~~~~\~~-------------4-4-----*4~~b~~-|
pm                                                . .

Guitar 2
D-----------------------------------------------------------------|
A-----------------------------------------------------------------|
F-----------------------------------------------------------------|
C-6~~~~-4~~~~-6~~-9~~~~~~-6~~~~~~~\~~-----------------------------|
G-6~~~~-4~~~~-6~~-9~~~~~~-6~~~~~~~\~~-4-6-4~~~~~~-----2-4---------|
C-6~~~~-4~~~~-6~~-9~~~~~~-6~~~~~~~\~~-------------4-4-----4~~~~~~-|
pm                                                . .

==================================================================

Guitar 1
D-----------------------------------------------------------------|
A-----------------------------------------------------------------|
F-----------------------------------------------------------------|
C-6~~~~-4~~~~-6~~-9~~~~~~-6~~~~~~~~~~-2---------------------------|
G-6~~~~-4~~~~-6~~-9~~~~~~-6~~~~~~~~~~-------6-----4---2---2h4p2---|
C-6~~~~-4~~~~-6~~-9~~~~~~-6~~~~~~~~~~---2-2---2-2---2---2-------6-|
pm                                      . .   . .   .   .

Guitar 2
D-----------------------------------------------------------------|
A-----------------------------------------------------------------|
F-----------------------------------------------------------------|
C-6~~~~-4~~~~-6~~-9~~~~~~-6~~~~~~~~~~-6-----4-----2---------------|
G-6~~~~-4~~~~-6~~-9~~~~~~-6~~~~~~~~~~-----------------6---6h7p6-4-|
C-6~~~~-4~~~~-6~~-9~~~~~~-6~~~~~~~~~~---2-2---2-2---2---2---------|
pm                                      . .   . .   .   .

==================================================================
==================================================================

Interlude 1 (or Pre Guitar Solo)

Guitar 1
D-----------------------------------------------------------------|
A-----------------------------------------------------------------|
F-------------3-----------3-4-4-4-------------3-----------3-4-4-4-|
C-----------------------------------------------------------------|
G-2-2-2-2-2-2-----2-2-2-2---------2-2-2-2-2-2-----2-2-2-2---------|
C-----------------------------------------------------------------|
pm. . . . . .     . . . .         . . . . . .     . . . .

Guitar 2
D-----------------------------------------------------------------|
A---------7---9~~~~~~~~~~-----------------------------------------|
F-------------------------4---6---8~~~~~~~b~~~r~~~~~~~b~r~b~r~b~r-|
C-----------------------------------------------------------------|
G-----------------------------------------------------------------|
C-----------------------------------------------------------------|

Guitar 3
D-----------------------------------------------------------------|
A-------------2-----------2-4-4-4-------------2-----------2-4-4-4-|
F-----------------------------------------------------------------|
C-----------------------------------------------------------------|
G-2-2-2-2-2-2-----2-2-2-2---------2-2-2-2-2-2-----2-2-2-2---------|
C-----------------------------------------------------------------|
pm. . . . . .     . . . .         . . . . . .     . . . .

==================================================================

Guitar 1
D-----------------------------------------------------------------|
A-----------------------------------------------------------------|
F-------------3-----------3-4-4-4-------------3-----------3-4-4-4-|
C-----------------------------------------------------------------|
G-----------------------------------------------------------------|
C-2-2-2-2-2-2-----2-2-2-2---------2-2-2-2-2-2-----2-2-2-2---------|
pm. . . . . .     . . . .         . . . . . .     . . . .

Guitar 2
D-----------------------------------------------------------------|
A-----5-4-5-4-----7-4-7-4-----5-4-----7-4-7-4-----5-4-------------|
F-------------6-4---------6-4-----6-4---------6-4-----6-4-*4~~~~~-|
C-----------------------------------------------------------------|
G-----------------------------------------------------------------|
C-----------------------------------------------------------------|
pm. . . . . . . . . . . . . . . . . . . . . . . . . . . .

Guitar 3
D-----------------------------------------------------------------|
A-------------2-----------2-4-4-4-------------2-----------2-4-4-4-|
F-----------------------------------------------------------------|
C-----------------------------------------------------------------|
G-----------------------------------------------------------------|
C-2-2-2-2-2-2-----2-2-2-2---------2-2-2-2-2-2-----2-2-2-2---------|
pm. . . . . .     . . . .         . . . . . .     . . . .

==================================================================

Guitar 1
D-----------------------------------------------------------------|
A-----------------------------------------------------------------|
F-------------3-----------3-4-4-4-------------3-----------3-4-4-4-|
C-----------------------------------------------------------------|
G-2-2-2-2-2-2-----2-2-2-2---------2-2-2-2-2-2-----2-2-2-2---------|
C-----------------------------------------------------------------|
pm. . . . . .     . . . .         . . . . . .     . . . .

Guitar 2
D-----------------------------------------------------------------|
A---------7---9~~~~~~~~~~-----------------------------------------|
F-------------------------4---6---8~~~~~~~b~~~r~~~~~~~b~r~b~r~b~r-|
C-----------------------------------------------------------------|
G-----------------------------------------------------------------|
C-----------------------------------------------------------------|

Guitar 3
D-----------------------------------------------------------------|
A-------------2-----------2-4-4-4-------------2-----------2-4-4-4-|
F-----------------------------------------------------------------|
C-----------------------------------------------------------------|
G-2-2-2-2-2-2-----2-2-2-2---------2-2-2-2-2-2-----2-2-2-2---------|
C-----------------------------------------------------------------|
pm. . . . . .     . . . .         . . . . . .     . . . .

==================================================================

Guitar 1
D-----------------------------------------------------------------|
A-----------------------------------------------------------------|
F-------------3-----------3-4-4-4-------------3-----------3-4-4-4-|
C-----------------------------------------------------------------|
G-----------------------------------------------------------------|
C-2-2-2-2-2-2-----2-2-2-2---------2-2-2-2-2-2-----2-2-2-2---------|
pm. . . . . .     . . . .         . . . . . .     . . . .

Guitar 2
D-------------------------------------------------------------------------|
A-12-------12-------12-------12-------14-14-14-12-12-12-16-16-16-12-12-12-|
F----8--9-----8--9-----8--9-----8--9--------------------------------------|
C-------------------------------------------------------------------------|
G-------------------------------------------------------------------------|
C-------------------------------------------------------------------------|

Guitar 3
D-----------------------------------------------------------------|
A-------------2-----------2-4-4-4-------------2-----------2-4-4-4-|
F-----------------------------------------------------------------|
C-----------------------------------------------------------------|
G-----------------------------------------------------------------|
C-2-2-2-2-2-2-----2-2-2-2---------2-2-2-2-2-2-----2-2-2-2---------|
pm. . . . . .     . . . .         . . . . . .     . . . .

==================================================================
==================================================================

Guitar Solo

Guitar 1 & 3 (x4)
D-7~~~~~~~\~~~~~~~~~~~~~~~----7~~-7~~~~~~~\~~~~~~~~~~~~~~~--------|
A-7~~~~~~~\~~~~~~~~~~~~~~~----7~~-7~~~~~~~\~~~~~~~~~~~~~~~--------|
F-x---------------------------x---x-------------------------------|
C-6~~~~~~~\~~~~~~~~~~~~~~~----6~~-6~~~~~~~\~~~~~~~~~~~~~~~--------|
G-6~~~~~~~\~~~~~~~~~~~~~~~----6~~-6~~~~~~~\~~~~~~~~~~~~~~~--------|
C-6~~~~~~~\~~~~~~~~~~~~~~~----6~~-6~~~~~~~\~~~~~~~~~~~~~~~--------|

Guitar 2
D-16b~~~~~~~~~~~~~~~~~~~~~~-16-14-16~~~~~~~~~~~~~~~~-|
A-19b~~~~~~~~~~~~~~~~~~~~~~--------------------------|
F----------------------------------------------------|
C----------------------------------------------------|
G----------------------------------------------------|
C----------------------------------------------------|

Guitar 2 continued
D-16---t19p16p14p11-t21p16-t21p16p14p11-t19p16p14p11-|
A----------------------------------------------------|
F----------------------------------------------------|
C----------------------------------------------------|
G----------------------------------------------------|
C----------------------------------------------------|

==================================================================

Guitar 2
D-16~~~~~~~~~~~~~~~~~-*16~~~~~~~~~~~~~~~~~~~~~~~-16--|
A----------------------------------------------------|
F----------------------------------------------------|
C----------------------------------------------------|
G----------------------------------------------------|
C----------------------------------------------------|

Guitar 2 continued
D-19p16----------------------------------------------|
A-------19p16p14-19p16p14----------------------------|
F-------------------------18p16p13-18p16p13----------|
C-------------------------------------------16p13p11-|
G----------------------------------------------------|
C----------------------------------------------------|

==================================================================

Guitar 2
D----------------------------------------------------|
A----------------------------------------------------|
F-13~~~~~~~~~~~~~~~~~~~~~~~~~~~-11--13--16--13--11~~-|
C----------------------------------------------------|
G----------------------------------------------------|
C----------------------------------------------------|

Guitar 2 continued
D---------------------------------------------------|
A-----16*~~~~~~~~~-14h15p14---------14--12----------|
F-~~~-----------------------16--14----------13--11--|
C---------------------------------------------------|
G---------------------------------------------------|
C---------------------------------------------------|

==================================================================

Guitar 2
D---------------------------------------------------|
A-14p12---------------------------------------------|
F-------13p11-------13p11---------------------------|
C-------------13p11-------13p12p11----*11~~~~~~~~~~-|
G----------------------------------14---------------|
C---------------------------------------------------|

Guitar 2 continued
D----------------------------------------------|
A-------------------------------------------12-|
F-------------------------11----11-13-11-13----|
C-------11----11-13-11-13----13----------------|
G-11-14----14----------------------------------|
C----------------------------------------------|

==================================================================
==================================================================

Interlude 2

Guitar 2
D-16~~~~~~~~~~~~~~~~~~~~~~~~~~~~~~~~~~~~~~~~~~~~~~~~~~~~~~~~~~~~~~
A-----------------------------------------------------------------|
F-----------------------------------------------------------------|
C-----------------------------------------------------------------|
G-----------------------------------------------------------------|
C-----------------------------------------------------------------|

Guitar 4
E---------------------------------0~~~~~~~~~~~~~~~~~~~~~~~~~~~~~~-
B-6~~~~~~~~~~~~~~~~~~~~~~~~~~~~~~-5~~~~~~~~~~~~~~~~~~~~~~~~~~~~~~-
G-7~~~~~~~~~~~~~~~~~~~~~~~~~~~~~~-6~~~~~~~~~~~~~~~~~~~~~~~~~~~~~~-
D-5~~~~~~~~~~~~~~~~~~~~~~~~~~~~~~-5~~~~~~~~~~~~~~~~~~~~~~~~~~~~~~-
A-5~~~~~~~~~~~~~~~~~~~~~~~~~~~~~~-5~~~~~~~~~~~~~~~~~~~~~~~~~~~~~~-
E-----------------------------------------------------------------

==================================================================

Guitar 1
D-----------------------------------------------------------------|
A-----------------------------------------------------------------|
F-----------------------------------------------------------------|
C-------------------------------------------------\~~~~~~~~~~~~~~-|
G-------------------------------------------------\~~~~~~~~~~~~~~-|
C-------------------------------------------------\~~~~~~~~~~~~~~-|

Guitar 2
D-~~~~~~~~~~~~~~~~~~~~~~~~~~~~~~~~~~~~~~~~~~~~~~~-----------------|
A-----------------------------------------------------------------|
F-----------------------------------------------------------------|
C-------------------------------------------------\~~~~~~~~~~~~~~-|
G-------------------------------------------------\~~~~~~~~~~~~~~-|
C-------------------------------------------------\~~~~~~~~~~~~~~-|

Guitar 4
E---------------------------------0~~~~~~~~~~~~~~~~~~~~~~~~~~~~~~-
B-6~~~~~~~~~~~~~~~~~~~~~~~~~~~~~~-5~~~~~~~~~~~~~~~~~~~~~~~~~~~~~~-
G-7~~~~~~~~~~~~~~~~~~~~~~~~~~~~~~-6~~~~~~~~~~~~~~~~~~~~~~~~~~~~~~-
D-5~~~~~~~~~~~~~~~~~~~~~~~~~~~~~~-5~~~~~~~~~~~~~~~~~~~~~~~~~~~~~~-
A-5~~~~~~~~~~~~~~~~~~~~~~~~~~~~~~-5~~~~~~~~~~~~~~~~~~~~~~~~~~~~~~-
E-----------------------------------------------------------------

==================================================================
==================================================================

Chorus 1

Guitar 1
D-----------------------------------------------------------------|
A-----------------------------------------------------------------|
F-----------------------------------------------------------------|
C-6~~~~~~~~~~~~~~~~~~~~~~~~~~~~~~-4~~~~~~~~~~~~~~~~~~~~~~~~~~~~~~-
G-6~~~~~~~~~~~~~~~~~~~~~~~~~~~~~~-4~~~~~~~~~~~~~~~~~~~~~~~~~~~~~~-
C-6~~~~~~~~~~~~~~~~~~~~~~~~~~~~~~-4~~~~~~~~~~~~~~~~~~~~~~~~~~~~~~-

Guitar 2
D-----------------------------------------------------------------|
A-12--12--x-x-12--12--x-x-12--x---10--10--x-x-10--10--x-x-10--x---|
F-x---x---x-x-x---x---x-x-x---x---x---x---x-x-x---x---x-x-x---x---|
C-9---9---x-x-9---9---x-x-9---x---7---7---x-x-7---7---x-x-7---x---|
G-----------------------------------------------------------------|
C-----------------------------------------------------------------|

Guitar 3
D/19~~~~~~~~~~~~~~~~~~~~~~~~~~~~~^~^~^~^~^~^~^~^~^~^~^~^~^~^~^~^~-
A-----------------------------------------------------------------|
F-----------------------------------------------------------------|
C-----------------------------------------------------------------|
G-----------------------------------------------------------------|
C-----------------------------------------------------------------|

==================================================================

Guitar 1
D-----------------------------------------------------------------|
A-----------------------------------------------------------------|
F-4~~~~~~~~~~~~~~~~~~~~~~~~~~~~~~-6~~~~~~~~~~~~~~~~~~~~~~~~~~~~~~-
C-4~~~~~~~~~~~~~~~~~~~~~~~~~~~~~~-6~~~~~~~~~~~~~~~~~~~~~~~~~~~~~~-
G-2~~~~~~~~~~~~~~~~~~~~~~~~~~~~~~-4~~~~~~~~~~~~~~~~~~~~~~~~~~~~~~-
C-----------------------------------------------------------------

Guitar 2
D---------------------------------11--11--x-x-9---9---x-x-9---x---|
A-12--12--x-x-12--12--x-x-12--x---x---x---x-x-x---x---x-x-x---x---|
F-x---x---x-x-x---x---x-x-x---x---8---8---x-x-8---8---x-x-8---x---|
C-9---9---x-x-9---9---x-x-9---x-----------------------------------|
G-----------------------------------------------------------------|
C-----------------------------------------------------------------|

Guitar 3
D---------------------------------9---9---x-x-11--11--x-x-11--x---|
A-9---9---x-x-9---9---x-x-9---x---x---x---x-x-x---x---x-x-x---x---|
F-x---x---x-x-x---x---x-x-x---x---6---6---x-x-8---8---x-x-8---x---|
C-6---6---x-x-6---6---x-x-6---x-----------------------------------|
G-----------------------------------------------------------------|
C-----------------------------------------------------------------|

==================================================================

Guitar 1
D-----------------------------------------------------------------|
A-----------------------------------------------------------------|
F-----------------------------------------------------------------|
C-6~~~~~~~~~~~~~~~~~~~~~~~~~~~~~~-4~~~~~~~~~~~~~~~~~~~~~~~~~~~~~~-
G-6~~~~~~~~~~~~~~~~~~~~~~~~~~~~~~-4~~~~~~~~~~~~~~~~~~~~~~~~~~~~~~-
C-6~~~~~~~~~~~~~~~~~~~~~~~~~~~~~~-4~~~~~~~~~~~~~~~~~~~~~~~~~~~~~~-

Guitar 2
D-----------------------------------------------------------------|
A-12--12--x-x-12--12--x-x-12--x---10--10--x-x-10--10--x-x-10--x---|
F-x---x---x-x-x---x---x-x-x---x---x---x---x-x-x---x---x-x-x---x---|
C-9---9---x-x-9---9---x-x-9---x---7---7---x-x-7---7---x-x-7---x---|
G-----------------------------------------------------------------|
C-----------------------------------------------------------------|

Guitar 3
D-----------------------------------------------------------------|
A-9---9---x-x-9---9---x-x-9---x---7---7---x-x-7---7---x-x-7---x---|
F-x---x---x-x-x---x---x-x-x---x---x---x---x-x-x---x---x-x-x---x---|
C-6---6---x-x-6---6---x-x-6---x---4---4---x-x-4---4---x-x-4---x---|
G-----------------------------------------------------------------|
C-----------------------------------------------------------------|

==================================================================

Guitar 1
D-----------------------------------------------------------------|
A-----------------------------------------------------------------|
F-4~~~~~~~~~~~~~~~~~~~~~~~~~~~~~~-6~~~~~~~~~~~~~~~~~~~~~~~~~~~~~~-
C-4~~~~~~~~~~~~~~~~~~~~~~~~~~~~~~-6~~~~~~~~~~~~~~~~~~~~~~~~~~~~~~-
G-2~~~~~~~~~~~~~~~~~~~~~~~~~~~~~~-4~~~~~~~~~~~~~~~~~~~~~~~~~~~~~~-
C-----------------------------------------------------------------

Guitar 2
D---------------------------------11--11--x-x-9---9---x-x-9---x---|
A-12--12--x-x-12--12--x-x-12--x---x---x---x-x-x---x---x-x-x---x---|
F-x---x---x-x-x---x---x-x-x---x---8---8---x-x-8---8---x-x-8---x---|
C-9---9---x-x-9---9---x-x-9---x-----------------------------------|
G-----------------------------------------------------------------|
C-----------------------------------------------------------------|

Guitar 3
D---------------------------------9---9---x-x-11--11--x-x-11--x---|
A-9---9---x-x-9---9---x-x-9---x---x---x---x-x-x---x---x-x-x---x---|
F-x---x---x-x-x---x---x-x-x---x---6---6---x-x-8---8---x-x-8---x---|
C-6---6---x-x-6---6---x-x-6---x-----------------------------------|
G-----------------------------------------------------------------|
C-----------------------------------------------------------------|

==================================================================
==================================================================

Chorus 2

Guitar 1
D-----------------------------------------------------------------|
A-----------------------------------------------------------------|
F-----------------------------------------------------------------|
C-6-6-6-6-6-6-6-6-6-6-6-6-6-6-6-6-4-4-4-4-4-4-4-4-4-4-4-4-4-4-4-4-|
G-6-6-6-6-6-6-6-6-6-6-6-6-6-6-6-6-4-4-4-4-4-4-4-4-4-4-4-4-4-4-4-4-|
C-6-6-6-6-6-6-6-6-6-6-6-6-6-6-6-6-4-4-4-4-4-4-4-4-4-4-4-4-4-4-4-4-|
pm. . . . . . . . . . . . . . . . . . . . . . . . . . . . . . . .

Guitar 2
D-----------------------------------------------------------------|
A-12--12--x-x-12--12--x-x-12--x---10--10--x-x-10--10--x-x-10--x---|
F-x---x---x-x-x---x---x-x-x---x---x---x---x-x-x---x---x-x-x---x---|
C-9---9---x-x-9---9---x-x-9---x---7---7---x-x-7---7---x-x-7---x---|
G-----------------------------------------------------------------|
C-----------------------------------------------------------------|

Guitar 3
D-----------------------------------------------------------------|
A-9---9---x-x-9---9---x-x-9---x---7---7---x-x-7---7---x-x-7---x---|
F-x---x---x-x-x---x---x-x-x---x---x---x---x-x-x---x---x-x-x---x---|
C-6---6---x-x-6---6---x-x-6---x---4---4---x-x-4---4---x-x-4---x---|
G-----------------------------------------------------------------|
C-----------------------------------------------------------------|

==================================================================

Guitar 1
D-----------------------------------------------------------------|
A-----------------------------------------------------------------|
F-4-4-4-4-4-4-4-4-4-4-4-4-4-4-4-4-6-6-6-6-6-6-6-6-6-6-6-6-6-6-6-6-|
C-4-4-4-4-4-4-4-4-4-4-4-4-4-4-4-4-6-6-6-6-6-6-6-6-6-6-6-6-6-6-6-6-|
G-2-2-2-2-2-2-2-2-2-2-2-2-2-2-2-2-4-4-4-4-4-4-4-4-4-4-4-4-4-4-4-4-|
C-----------------------------------------------------------------|
pm. . . . . . . . . . . . . . . . . . . . . . . . . . . . . . . .

Guitar 2
D---------------------------------11--11--x-x-9---9---x-x-9---x---|
A-12--12--x-x-12--12--x-x-12--x---x---x---x-x-x---x---x-x-x---x---|
F-x---x---x-x-x---x---x-x-x---x---8---8---x-x-8---8---x-x-8---x---|
C-9---9---x-x-9---9---x-x-9---x-----------------------------------|
G-----------------------------------------------------------------|
C-----------------------------------------------------------------|

Guitar 3
D---------------------------------9---9---x-x-11--11--x-x-11--x---|
A-9---9---x-x-9---9---x-x-9---x---x---x---x-x-x---x---x-x-x---x---|
F-x---x---x-x-x---x---x-x-x---x---6---6---x-x-8---8---x-x-8---x---|
C-6---6---x-x-6---6---x-x-6---x-----------------------------------|
G-----------------------------------------------------------------|
C-----------------------------------------------------------------|

==================================================================

Guitar 1
D-----------------------------------------------------------------|
A-----------------------------------------------------------------|
F-----------------------------------------------------------------|
C-6-6-6-6-6-6-6-6-6-6-6-6-6-6-6-6-4-4-4-4-4-4-4-4-4-4-4-4-4-4-4-4-|
G-6-6-6-6-6-6-6-6-6-6-6-6-6-6-6-6-4-4-4-4-4-4-4-4-4-4-4-4-4-4-4-4-|
C-6-6-6-6-6-6-6-6-6-6-6-6-6-6-6-6-4-4-4-4-4-4-4-4-4-4-4-4-4-4-4-4-|
pm. . . . . . . . . . . . . . . . . . . . . . . . . . . . . . . .

Guitar 2
D-----------------------------------------------------------------|
A-12--12--x-x-12--12--x-x-12--x---10--10--x-x-10--10--x-x-10--x---|
F-x---x---x-x-x---x---x-x-x---x---x---x---x-x-x---x---x-x-x---x---|
C-9---9---x-x-9---9---x-x-9---x---7---7---x-x-7---7---x-x-7---x---|
G-----------------------------------------------------------------|
C-----------------------------------------------------------------|

Guitar 3
D-----------------------------------------------------------------|
A-9---9---x-x-9---9---x-x-9---x---7---7---x-x-7---7---x-x-7---x---|
F-x---x---x-x-x---x---x-x-x---x---x---x---x-x-x---x---x-x-x---x---|
C-6---6---x-x-6---6---x-x-6---x---4---4---x-x-4---4---x-x-4---x---|
G-----------------------------------------------------------------|
C-----------------------------------------------------------------|

==================================================================

Guitar 1
D-----------------------------------------------------------------|
A-----------------------------------------------------------------|
F-4-4-4-4-4-4-4-4-4-4-4-4-4-4-4-4---------------------------------|
C-4-4-4-4-4-4-4-4-4-4-4-4-4-4-4-4---------------------------------|
G-2-2-2-2-2-2-2-2-2-2-2-2-2-2-2-2---------------------------------|
C-----------------------------------------------------------------|
pm. . . . . . . . . . . . . . . .

Guitar 2
D---------------------------------|
A-12--12--x-x-12--12--x-x-12--x---|
F-x---x---x-x-x---x---x-x-x---x---|
C-9---9---x-x-9---9---x-x-9---x---|
G---------------------------------|
C---------------------------------|

Guitar 2 continued (Very fast, but possible. I do it in my cover.)
D-19p16p14-----------------------------------------------------------------|
A----------16p14p12-19p16p14p----------------------------------------------|
F-----------------------------16p13p11-18p16p13----------------------------|
C-----------------------------------------------16p13p11-18p16p13----------|
G-----------------------------------------------------------------16p14p13-|
C--------------------------------------------------------------------------|


Guitar 3
D---------------------------------|
A-9---9---x-x-9---9---x-x-9---x---|
F-x---x---x-x-x---x---x-x-x---x---|
C-6---6---x-x-6---6---x-x-6---x---|
G---------------------------------|
C---------------------------------|

Guitar 3 continued
D--------------------------------------------------------------------------|
A--------------------------------------------------------------------------|
F--------------------------------------------------------------------------|
C-16p13p11----------13p11p9------------11p9p8------------9p8p6-------------|
G----------14p13p11-----------13p11p9-----------11p9p8------------9p8p6----|
C--------------------------------------------------------------------------|

==================================================================
==================================================================

Outro

Guitar 1
D-----------------------------------------------------------------|
A-----------------------------------------------------------------|
F-----------------------------------------------------------------|
C-6~~~~-4~~~~-6~~-9~~~~~~-6~~~~~~~\~~-----------------------------|
G-6~~~~-4~~~~-6~~-9~~~~~~-6~~~~~~~\~~-4-6-*4~~~~~-----2-4---------|
C-6~~~~-4~~~~-6~~-9~~~~~~-6~~~~~~~\~~-------------4-4-----4~~~~~~-|
pm                                                . .

Guitar 2
D-----------------------------------------------------------------|
A-----------------------------------------------------------------|
F-----------------------------------------------------------------|
C-----------------------------------------------------------------|
G-11~~~~~~~~~~~~~~~~~~~~~~~~~~~~~~\~~-4-6-4~~~~~~-----2-4---------|
C-------------------------------------------------4-4-----4~~~~~~-|
pm                                                . .

Guitar 3
D-----------------------------------------------------------------|
A-----------------------------------------------------------------|
F-----------------------------------------------------------------|
C-----------------------------------------------------------------|
G-----------------------------------------------------------------|
C-6~~~~~~~~~~~~~~~~~~~~~~~~~~~~~~~\~~-----------------------------|

==================================================================

Guitar 1
D-----------------------------------------------------------------|
A-----------------------------------------------------------------|
F-----------------------------------------------------------------|
C-6~~~~-4~~~~-6~~-9~~~~~~-6~~~~~~~~~~-2---------------------------|
G-6~~~~-4~~~~-6~~-9~~~~~~-6~~~~~~~~~~-------6-----4---2---2h4p2---|
C-6~~~~-4~~~~-6~~-9~~~~~~-6~~~~~~~~~~---2-2---2-2---2---2-------6-|
pm                                      . .   . .   .   .

Guitar 2
D-----------------------------------------------------------------|
A-----------------------------------------------------------------|
F-----------------------------------------------------------------|
C-6~~~~-4~~~~-6~~-9~~~~~~-6~~~~~~~~~~-6-----4-----2---------------|
G-6~~~~-4~~~~-6~~-9~~~~~~-6~~~~~~~~~~-----------------6---6h7p6-4-|
C-6~~~~-4~~~~-6~~-9~~~~~~-6~~~~~~~~~~---2-2---2-2---2---2---------|
pm                                      . .   . .   .   .

==================================================================

Guitar 1
D-----------------------------------------------------------------|
A-----------------------------------------------------------------|
F-----------------------------------------------------------------|
C-6~~~~-4~~~~-6~~-9~~~~~~-6~~~~~~~\~~-----------------------------|
G-6~~~~-4~~~~-6~~-9~~~~~~-6~~~~~~~\~~-4-6-*4~~~~~-----2-4---------|
C-6~~~~-4~~~~-6~~-9~~~~~~-6~~~~~~~\~~-------------4-4-----*4~~b~~-|
pm                                                . .

Guitar 2
D-----------------------------------------------------------------|
A-----------------------------------------------------------------|
F-----------------------------------------------------------------|
C-6~~~~-4~~~~-6~~-9~~~~~~-6~~~~~~~\~~-----------------------------|
G-6~~~~-4~~~~-6~~-9~~~~~~-6~~~~~~~\~~-4-6-4~~~~~~-----2-4---------|
C-6~~~~-4~~~~-6~~-9~~~~~~-6~~~~~~~\~~-------------4-4-----4~~~~~~-|
pm                                                . .

==================================================================

Guitar 1
D-----------------------------------------------------------------|
A-----------------------------------------------------------------|
F-----------------------------------------------------------------|
C-6~~~~-4~~~~-6~~-9~~~~~~-6~~~~~~~~~~-2---------------------------|
G-6~~~~-4~~~~-6~~-9~~~~~~-6~~~~~~~~~~-------6-----4---2---2h4p2---|
C-6~~~~-4~~~~-6~~-9~~~~~~-6~~~~~~~~~~---2-2---2-2---2---2-------6-|
pm                                      . .   . .   .   .

Guitar 2
D-----------------------------------------------------------------|
A-----------------------------------------------------------------|
F-----------------------------------------------------------------|
C-6~~~~-4~~~~-6~~-9~~~~~~-6~~~~~~~~~~-6-----4-----2---------------|
G-6~~~~-4~~~~-6~~-9~~~~~~-6~~~~~~~~~~-----------------6---6h7p6-4-|
C-6~~~~-4~~~~-6~~-9~~~~~~-6~~~~~~~~~~---2-2---2-2---2---2---------|
pm                                      . .   . .   .   .

Guitar 3
D/19~~~~~~~~~~~~~~~~~~~~~~~~~~~~~^~^~^~^~^~^~^~^~^~^~^~^~^~^~^~^~-
A-----------------------------------------------------------------|
F-----------------------------------------------------------------|
C-----------------------------------------------------------------|
G-----------------------------------------------------------------|
C-----------------------------------------------------------------|

==================================================================

Guitar 1 & 2
D-----------------------------------------------------------------|
A-----------------------------------------------------------------|
F-----------------------------------------------------------------|
C-6~~~~\~~~-------------------------------------------------------|
G-6~~~~\~~~-------------------------------------------------------|
C-6~~~~\~~~-------------------------------------------------------|

Guitar 3
D-19~~~\~~~-------------------------------------------------------|
A-----------------------------------------------------------------|
F-----------------------------------------------------------------|
C-----------------------------------------------------------------|
G-----------------------------------------------------------------|
C-----------------------------------------------------------------|

==================================================================
==================================================================
==================================================================

Tab Legend
h  -  hammer-on
p  -  pull-off
/  -  slide up
\  -  slide down
ps/-  pickslide up
ps\-  pickslide down
~  -  let ring
pm.-  palm mute
b  -  bend
r  -  return from bend
*  -  harmonic
x  -  dead note
^  -  Whammy bar

That’s it! If you have any questions, just ask or check out my cover. Also let me know
how I did. Thanks, oh and one last thing... ROCK OUT!!!!
Tap to rate this tab
# A B C D E F G H I J K L M N O P Q R S T U V W X Y Z