Song name
# A B C D E F G H I J K L M N O P Q R S T U V W X Y Z

Black Tide - Lost In The Sound tab

Hi people, this is my first tab here.
It's just a little part, but it's a start! (:

time: 3:09
|-------------------------------------------------------------|
|----------14-14-14-10---------14-14-14-10---------14-14-14---|
|-11-11-11-------------11-11-11------------11-11-11-----------|x4
|-------------------------------------------------------------|
|-------------------------------------------------------------|
|-------------------------------------------------------------|

|-------------------------------------------------------------|
|----------19-19-19-14---------19-19-19-14---------19-19-19---|
|-14-14-14-------------14-14-14------------14-14-14-----------|x4
|-------------------------------------------------------------|
|-------------------------------------------------------------|
|-------------------------------------------------------------|

|-------------------------------------------------------------|
|-14-14-14---14-14---14-14-14---14-14-------------------------|
|-14-14-14---14-14---14-14-14---14-14-------------------------|
|-------------------------------------------------------------|
|-------------------------------------------------------------|
|-------------------------------------------------------------|

|-------------------------------------------------------------|
|----------14-14-14-10---------14-14-14-10---------14-14-14---|
|-11-11-11-------------11-11-11------------11-11-11-----------|x4
|-------------------------------------------------------------|
|-------------------------------------------------------------|
|-------------------------------------------------------------|

|-------------------------------------------------------------|
|----------19-19-19-14---------19-19-19-14---------19-19-19---|
|-14-14-14-------------14-14-14------------14-14-14-----------|x4
|-------------------------------------------------------------|
|-------------------------------------------------------------|
|-------------------------------------------------------------|

|-------------------------------------------------------------|
|-14-14-14---14-14---14-14-14---14-14-------------------------|
|-14-14-14---14-14---14-14-14---14-14-------------------------|
|-------------------------------------------------------------|
|-------------------------------------------------------------|
|-------------------------------------------------------------|

time: 3:36 "We can change this, we can make things alright''

|-------------------------------------------------------------|
|-------------------------------------------------------------|
|-14-14-14-14-------------------------------------------------|
|-------------------------------------------------------------|
|-12-12-12-12-------------------------------------------------|
|-------------------------------------------------------------|


anyone who can continue this tab, do it! 
Tap to rate this tab
# A B C D E F G H I J K L M N O P Q R S T U V W X Y Z