Song name
# A B C D E F G H I J K L M N O P Q R S T U V W X Y Z

Black Tide - Into The Sky tab

Band: Black Tide
Song: Into The Sky
Album: Post Mortem (2011)

A very meaningful song and fun to play with. Enjoy.

Listen to the song for the timings. Tabs should be 100% correct, otherwise, please 
comment. Thanks, and enjoy.



E|---------------------------------------------------------------------------|
B|-------------------------9~------------------------------------------------|
G|-----6--6~-----6--6h8/10---------8h10p8-----8--8h10--8~----6--6---5b6------|
D|-0/8------------8----------------------11-8-----------------8--------6-----|
A|----------------------------------------------------------------------6\3v-|
E|---------------------------------------------------------------------------|






E|------------------------------------9/13--11--9----------------------------|
B|------------------------------9h11-----------------------------------------|
G|-------6--6~-----6-----6h8/10----------------------------------------------|
D|--0/8---------------8------------------------------------------------------|
A|---------------------------------------------------------------------------|
E|---------------------------------------------------------------------------|





E|-11--13--13h14p13p11~-----9--8h9p8\6v--------------------------------------|
B|---------------------------------------------------------------------------|
G|---------------------------------------------------------------------------|
D|---------------------------------------------------------------------------|
A|---------------------------------------------------------------------------|
E|---------------------------------------------------------------------------|







Legend:

b   - bend up to fret
h   - hammer on
p   - pull off
/   - slide up to
\   - slide down from
v   - vibrato
~   - hold note
Tap to rate this tab
# A B C D E F G H I J K L M N O P Q R S T U V W X Y Z