Song name
# A B C D E F G H I J K L M N O P Q R S T U V W X Y Z

Black Uniforms - Foad tab

CHEERS MOTHAFUCKERS!!!

main riff is: 
e|--------------------------------|
B|--------------------------------|
G|--------5-5-5---------4-4-4-----|
D|-2-2--2-5-5-5-5-5-5---4-4-4-----|
A|-2-2--2-3-3-3-5-5-5---2-2-2-----|
E|-0-0--0-------3-3-3-------------|

"Fuck off and die don't ask why fuck off and die!!":
e|---------------------------------|
B|---------------------------------|
G|-5---7---9-----7----5---7--------|
D|-5---7---9-----7----5---7--------|
A|-3---5---7-----5----3---5--------|
E|---------------------------------|
   x5  x5  x10   x1   x6  x1

AFTER THE CHORUS:
e|--------------------------------|
B|--------------------------------|
G|--------------------------------|
D|--------------------------------|
A|--------------------------------|
E|--0-2-3-5-----------------------|

Main riff "You're into swedish hardcore but you music sucks..."

Chorus+after the chorus

I HAVE NO IDEA HOW IS THE SOLO BUT THIS IS THE SOLO RIFF (it's palm muted):

e|--------------------------------|
B|--------------------------------|
G|----5---------------------------| LISTEN THE SONG TO KNOW THE TIMES!
D|-2--5--5-5----------------------|
A|-2--3--5-5----------------------|
E|-0-----3-2----------------------|
   x  x  x x

Main riff

Chorus+after the chorus and ENDS:

e|--------------------|
B|--------------------|
G|--------------------|
D|-2------------------|
A|-2-*LET RING!!*-----|
E|-0------------------|


http://www.myspace.com/blackuniforms

maggot_13_@hotmail.com
Tap to rate this tab
 
# A B C D E F G H I J K L M N O P Q R S T U V W X Y Z