Song name
# A B C D E F G H I J K L M N O P Q R S T U V W X Y Z

Black Veil Brides - The Morticians Daughter tab

Song: The Mortician's Daughter
Artist: Black Veil Brides
Tuning: Standard

The strum is fairly simple; It should be obvious where to change chords.

0:00 - 1:29
e|-0----0----0----0------------------|
B|-0----0----0----0------------------|
G|-9----6----6----8------------------| x11
D|-9----6----7----9------------------|
A|-7----4----7----9------------------|
E|-x----x----5----7------------------|

I open my lungs, dear.
I sing this song at funerals.
No rush.
These lyrics heard a thousand times,
Just plush.
A baby boy you've held so tightly,
This pain, it visits almost nightly.
Missing hotel beds, I feel your touch.

I will wait, dear.
A patient of eternity,
My crush.
A universal still.
No rust.
No dust will ever grow on this frame, 
One million years, I will say your name.
I love you more than I can ever scream.

1:29 - 1:53
e|-0----0----0----0------------------|
B|-0----0----0----0------------------|
G|-9----8----5----6------------------| x3
D|-9----9----6----7------------------|
A|-7----9----6----7------------------|
E|-x----7----4----5------------------|

We booked our flight those years ago,
I said I love you as I left you.
Regrets still haunt my hollow head,
but I promised you, I will see you again.

1:53 - 2:33 
e|-0----0----0----0------------------|
B|-0----0----0----0------------------|
G|-9----6----6----8------------------| x5
D|-9----6----7----9------------------|
A|-7----4----7----9------------------|
E|-x----x----5----7------------------|

I sit here and smile, dear.
I smile because I think of you.
I blush.
These bleeding hollow dials.
This fuss.
A fuss is made of miles and travels
When roadways are but stones and gravel.
A bleeding heart can conquer every crutch.

2:33 - 3:13
e|-0----0----0----0------------------|
B|-0----0----0----0------------------|
G|-9----8----5----6------------------| x5
D|-9----9----6----7------------------|
A|-7----9----6----7------------------|
E|-x----7----4----5------------------|

We booked our flight those years ago,
You said you loved me as you left me.
Regrets still haunt your saddened head,
But I promised you, I will see you.

We booked our flight those years ago,
I said I loved you and I left you.
Regrets no longer in my head, 
But I promised you and now I'm home again.

3:13 - 3:29
e|-0----0----0----0------------------|
B|-0----0----0----0------------------|
G|-9----6----6----8------------------| x2
D|-9----6----7----9------------------|
A|-7----4----7----9------------------|
E|-x----x----5----7------------------|

Again, again, again, again, again.
I'm home...

3:29 - 3:36
e|-0~---|
B|-0~---|
G|-9~---|
D|-9~---|
A|-7~---|
E|-x~---|

again.
Tap to rate this tab
# A B C D E F G H I J K L M N O P Q R S T U V W X Y Z