Song name
# A B C D E F G H I J K L M N O P Q R S T U V W X Y Z

Black Veil Brides - Knives And Pens tab

TAB for Knives and Pens (OFFICIAL)
Current mood:  productive
You've been asking for it, and here it is FINALLY!  The tablature for the guitar parts
Knives and Pens!  This is official as this is how Jake and I play it live and on the
  I will keep updating with the other sections of the song when I get a minute here and 
 For now, here is the intro :)


"Knives and Pens"
by A. Biersack & C. Stewart
as performed and recorded by Jinxx & Jake Pitts of Black Veil Brides

Tuning: Drop D


Intro:


|--------------------------------------------------------------------------------|
|--------------------------------------------------------------------------------|
|--------------------------------------------------------9-----------------------|
|----------------------------7-5----------8-7--------------10-12-10-12-10-12-10--|
|-------8---10---8---7-8-7-5-----8-7----------8-10-------------------------------|
|--0--0---0----0---0-----------------8--8----------10-10-------------------------|
|
|
|
|
|--------------------------------------------------------------------------------|
|--------------------------------------------------------------------------------|
|--------------------------------------------------------------------------------|
|--------------------------------------------------------------------------------|
|--0---------------------------------8-------------10----------------------------|
|--0---------------------------------8-------------10----------------------------|

|--------------------------------------------------------------------------------|
|--------------------------------------------------------------------------------|
|--------------------------------------------------------10--9--7----------------|
|----------------------------7-5----------8-7----------------------8--7----------|
|-------8---10---8---7-8-7-5-----8-7----------8-10-------------------------------|
|--0--0---0----0---0-----------------8--8----------10-10-------------------------|
|
|
|
|
|--------------------------------------------------------------------------------|
|--------------------------------------------------------------------------------|
|--------------------------------------------------------------------------------|
|--------------------------------------------------------------------------------|
|--0---------------------------------8-------------10----------------------------|
|--0---------------------------------8-------------10----------------------------|

|--------------------------------------------------------------------------------|
|--------------------------------------------------------------------------------|
|--------------------------------------------------------9-----------------------|
|----------------------------7-5----------8-7--------------10-12-10-12-10-12-10--|
|-------8---10---8---7-8-7-5-----8-7----------8-10-------------------------------|
|--0--0---0----0---0-----------------8--8----------10-10-------------------------|
|
|
|
|
|--------------------------------------------------------------------------------|
|--------------------------------------------------------------------------------|
|----------------------------5---------------------------12--9-10-9-10-9-10-9----|
|--------------------5-7-5-----8-7-5------8-7------------------------------------|
|-------8---10---8---------8------------------8-10-------------------------------|
|--0--0---0----0---0-----------------8--8----------10-10-------------------------|

|--------------------------------------------------------------------------------|
|--------------------------------------------------------------------------------|
|--------------------------------------------------------10--9--7----------------|
|----------------------------7-5----------8-7----------------------8--7----------|
|-------8---10---8---7-8-7-5-----8-7----------8-10-------------------------------|
|--0--0---0----0---0-----------------8--8----------10-10-------------------------|
|
|
|
|
|--------------------------------------------------------------------------------|
|--------------------------------------------------------------------------------|
|----------------------------5---------------------------14-12-------------------|
|--------------------5-7-5-----8-7-5------8-7------------------15-12-------------|
|-------8---10---8---------8------------------8-10-------------------15----------|
|--0--0---0----0---0-----------------8--8----------10-10-------------------------|

|--------------------------------------------------------------------------------|
|--------------------------------------------------------------------------------|
|--------------------------------------------------------9-----------------------|
|----------------------------7-5----------8-7--------------10-12-10-12-10-12-10--|
|-------8---10---8---7-8-7-5-----8-7----------8-10-------------------------------|
|--0--0---0----0---0-----------------8--8----------10-10-------------------------|
|
|
|
|
|--------------------------------------------------------------------------------|
|--------------------------------------------------------------------------------|
|----------------------------5---------------------------12--9-10-9-10-9-10-9----|
|--------------------5-7-5-----8-7-5------8-7------------------------------------|
|-------8---10---8---------8------------------8-10-------------------------------|
|--0--0---0----0---0-----------------8--8----------10-10-------------------------|

|--------------------------------------------------------------------------------|
|--------------------------------------------------------------------------------|
|--------------------------------------------------------------------------------|
|----------------------------7-5----------8--7-----------------------------------|
|-------8---10---8---7-8-7-5-----8-7-----------10-8-7----------------------------|
|--0--0---0----0---0-----------------8--8----------------------------------------|
|
|
|
|
|--------------------------------------------------------------------------------|
|--------------------------------------------------------------------------------|
|----------------------------5---------------------------------------------------|
|--------------------5-7-5-----8-7-5------8--7-----------------------------------|
|-------8---10---8---------8-------------------10-8-10---------------------------|
|--0--0---0----0---0-----------------8--8----------------------------------------|
Tap to rate this tab
# A B C D E F G H I J K L M N O P Q R S T U V W X Y Z