Song name
# A B C D E F G H I J K L M N O P Q R S T U V W X Y Z

Black Veil Brides - The Morticians Daughter tab

E|--------3--------------0-----------|
B|--------0--------------0-----------|
G|--------0--------------0-----------|\
D|--------0--------------2-----------| \
A|--------2--------------2-----------|  \
E|--------3--------------0-----------|   \
                                          \
E|--------0--------------2-----------|     \ USE FOR VERSES ONLY NOT CHORUS
B|--------1--------------3-----------|     / FIGURE OUT STRUMMING PATTERN
G|--------0--------------2-----------|    /
D|--------2--------------0-----------|   /
A|--------3--------------0-----------|  /
E|--------0--------------X-----------| /

I WILL TRY TO FIGURE OUT CHORDS FOR THE CHORUS LATER WHEN I HAVE TIME.

OH, BY THE WAY, THIS IS MY FIRST TAB, SO... TAKE IT EASY PLEASE.

THANKS. =D 
BVB ALL THE WAY!!!!!!
Tap to rate this tab
# A B C D E F G H I J K L M N O P Q R S T U V W X Y Z