Song name
# A B C D E F G H I J K L M N O P Q R S T U V W X Y Z

Black Veil Brides - Knives And Pens tab

This is my first tab that i have ever done, i made it easier than the original version 
the song so that beginnig players can play this song. i think its a great song so plzz 
and rate and tell me if you see any changes that i can make to it soo have funn.

E||---------------------------------------|
B||---------------------------------------|
G||---------------------------------------|
D||-------------------------------7-5-----|
A||--------8----10----8----7-8-7-5-----8-7|
D||---------------------------------------|


E||---------------------------------------------------------------|
B||---------------------------------------------------------------|
G||---------------------------------------------------------------|
D||----8---------------------14----10h-12p-10h-12p-10h-12p-10h-12-|
A||---------12----8-10--------------------------------------------|
D||---------------------------------------------------------------|

E||---------------------------------------|
B||---------------------------------------|
G||---------------------------------------|
D||----------------------------7-5--------|
A||-----8----10----8----7-8-7-5-----8-7---|
D||---------------------------------------|

E||--------------------------------------------|
B||--------------------------------------------|
G||--------------------------------------------|
D||----8---------------------15-14-12----------|
A||---------12----8-10----------------13-12----|
D||-----------------------------------------12-|

E||---------------------------------------|
B||---------------------------------------|
G||---------------------------------------|
D||---------------------------7-5---------|
A||-----8----10----8----7-8-7-5-----8-7---|
D||---------------------------------------|

E||---------------------------------------------------------------|
B||---------------------------------------------------------------|
G||---------------------------------------------------------------|
D||----8---------------------14----10h-12p-10h-12p-10h-12p-10h-12-|
A||---------12----8-10--------------------------------------------|
D||---------------------------------------------------------------|

E||----------------------------------------|
B||----------------------------------------|
G||----------------------------------------|
D||----------------------------7-5---------|
A||-----8----10----8----7-8-7-5-----8-7----|
D||----------------------------------------|

E||--------------------------------------------|
B||--------------------------------------------|
G||--------------------------------------------|
D||----8---------------------15-14-12----------|
A||---------12----8-10----------------13-12----|
D||-----------------------------------------12-|

E||----------------------------------------|
B||----------------------------------------|
G||----------------------------------------|
D||----------------------------7-5---------|
A||-----8----10----8----7-8-7-5-----8-7----|
D||----------------------------------------|

E||---------------------------------------------------------------|
B||---------------------------------------------------------------|
G||---------------------------------------------------------------|
D||----8---------------------14----10h-12p-10h-12p-10h-12p-10h-12-|
A||---------12----8-10--------------------------------------------|
D||---------------------------------------------------------------|

E||---------------------------------------|--------------------------------|
B||---------------------------------------|--------------------------------|
G||---------------------------------------|--------------------------------|
D||-----------------------------7-5-------|-------8------------------------|
A||-----8----10----8----7-8-7-5-----8-7---|-----------12-10-8-10-----------|
D||---------------------------------------|----8---------------------------|
Tap to rate this tab
# A B C D E F G H I J K L M N O P Q R S T U V W X Y Z