Black Veil Brides - Perfect Weapon tab

Black Veil Brides-Perfect Weapon SOLO TAB
Tuning-Drop Db (Drop C#)

By ADVER

Just so everyone knows, this tab was rushed.
The album wasn't out during the time of me tabbing this.
I had to tab it while listening to it in really poor quality.
As far as I can tell, with as much time as I spent on this, there isn't really any mistakes.
If there are, they arent big.
I welcome corrections.

It's no where near as technical as it sounds.

d-17h18p17-15--------15-----|
a------------18p17p18---17--|
f---------------------------|
c---------------------------|
g---------------------------|
c---------------------------|


d----15-13----13--------------------------------------------------|
a-----------15---15-13---15-13---13-------------------------------|
f------------------------------14---14-12---14-12-10----12-10-----|
c-------------------------------------------------------------12--|
g-----------------------------------------------------------------|
c-----------------------------------------------------------------|


d--------------------------|
a--------------------------|
f----10--------------------|
c-------12--10--12-10------|
g---------------------12---|
c--------------------------|


d--------------------------------------------------------------|
a---------------------------------------10---------------------|
f------------------10--10---12p10p12-------12-10-12-10---10*---|
c---10---12p10p12----12-------------------------------12-------|
g-12-----------------------------------------------------------|
c--------------------------------------------------------------|


variations of this little tap
d-t13p10p8h10--|
a--------------|
f--------------|
c--------------|
g--------------|
c--------------|


tremelo bit
d---121212-13131313-151515--131313--1515-17b----17-15-13-----------|
a---------------------------------------------------------17b-15*--|
f------------------------------------------------------------------|
c------------------------------------------------------------------|
g------------------------------------------------------------------|
c------------------------------------------------------------------|


d-13h15-13h15---12h13p12-----10h11p10---10------------------------------------|
a------------------------------------13---13--11p13p11-----11-----------------|
f-------------------------------------------------------14---14---12-14-12----|
c--------------------------------------------------------------------------15-|
g-----------------------------------------------------------------------------|
c-----------------------------------------------------------------------------|

d----------------------------------|
a----------------------------------|
f-12---------------12-1212b~~~-----|
c------15--14-12~~~----------------|
g----------------------------------|
c----------------------------------|

little hammer-on bit
d-----------------------------------------------------------------|
a-----------------------------------------------------/15b-13-15--|
f----7h9p7-------9--10---9h10p9-------10-12--10h12p10---------17b-|
c-----------------------------------------------------------------|
g-----------------------------------------------------------------|
c-----------------------------------------------------------------|
Tap to rate this tab
 
# A B C D E F G H I J K L M N O P Q R S T U V W X Y Z