Song name
# A B C D E F G H I J K L M N O P Q R S T U V W X Y Z

Black Veil Brides - Perfect Weapon tab


-------------------------------------------------------------------------------
			     Perfect Weapon - Black Veil Brides
-------------------------------------------------------------------------------
Tabbed by:Navi
Email: wtf_es@hotmail.com

Well this is all for right now later I'll do the rest..
comment an rate


Tuning: Drop C

    0:47-1:18
                                   x3   
1|---------------------------------------------------------------------------|
2|---------------------------------------------------------------------------|
3|---------------------------------------------------------------------------|
4|--------------7-5-----------------------------------7-5--------------------|
5|---10-8p7-5-8----7-8--10-8p7-5-7-8-7-5---10-8p7-5-8----7-8-10-8p7--12p10-----10-8|
6|--0--0---0-0---------0--0---0-0---0-----0--0---0-0--------0--0---10-----12-13|

    1:18-1:28
1|---------------------------------------------------------------------------|
2|---------------------------------------------------------------------------|
3|---------------------------------------------------------------------------|
4|--0-----------------10--------------10-------12b-10b-9b--------------------|
5|--0-----------------7----------------8-------------------------------------|
6|--0-----------------7----------------8-------------------------------------|



************************************

| /   slide up
| \   slide down
| h   hammer-on
| p   pull-off
| ~   vibrato
| +   harmonic
| x   Mute note
| b   Bend
| pb  Pre-bend
| br  Bend release
| pbr Pre-bend release
| brb Bend release bend

************************************
Tap to rate this tab
 
# A B C D E F G H I J K L M N O P Q R S T U V W X Y Z