Song name
# A B C D E F G H I J K L M N O P Q R S T U V W X Y Z

Black Veil Brides - Knives And Pens tab

this is a dueling solo for the EP version. i dont know the other dueling part so 
this will help get u started. THIS TAB IS DEDICATED TO HUNTER SHOE


e|--------------------------------------------------------------------------|
B|--------------------------------------------------------------------------|
G|--------------------------------------------------------------------------|
D|------15-19-17-15-19-17-15-19-17-15-19-17-15-19-17-15---------------------|
A|--------------------------------------------------------------------------|
D|--------------------------------------------------------------------------|

e|--------------------------------------------------------------------------|
B|--------------------------------------------------------------------------|
G|---------15-14----15-14----15-14----15-14----15-14------------------------|
D|------17-------17-------17-------17-------17-------17---------------------|
A|--------------------------------------------------------------------------|
D|--------------------------------------------------------------------------|

e|--------------------------------------------------------------------------|
B|--------------------------------------------------------------------------|
G|------14-17-15-14-17-15-14-17-15-14-17-15-14-17-15-14---------------------|
D|--------------------------------------------------------------------------|
A|--------------------------------------------------------------------------|
D|--------------------------------------------------------------------------|

e|--------------------------------------------------------------------------|
B|--------------------------------------------------------------------------|
G|------15-19-17-15-19-17-15-19-17-15-19-17-15-19-17-15---------------------|
D|--------------------------------------------------------------------------|
A|--------------------------------------------------------------------------|
D|--------------------------------------------------------------------------|
then the Chinese part :p
e|-------------------17-20-17-----------------------------------------------|
B|--------------/18~----------18--------------------------------------------|
G|-------------------------------17-----------------------------------------|
D|----------------------------------19-17-19-17----17-----------------------|
A|----------------------------------------------20----20~~~-----------------|
D|--------------------------------------------------------------------------|
  
e|-------------------17-18-17-----------------------------------------------|
B|--------------/18~----------18--------------------------------------------|
G|-------------------------------17-----------------------------------------|
D|----------------------------------19-17-19-17----17-----------------------|
A|----------------------------------------------20----20~~~-----------------|
D|--------------------------------------------------------------------------|

e|--------------20--17------------------------------------------------------|
B|---------------------18---------------------------------------------------|
G|------------------------17----17------------------------------------------|
D|---------------------------20----20-19-20-19-17-19-17~~~------------------|
A|--------------------------------------------------------------------------|
D|--------------------------------------------------------------------------|

Tap to rate this tab
 
# A B C D E F G H I J K L M N O P Q R S T U V W X Y Z