Song name
# A B C D E F G H I J K L M N O P Q R S T U V W X Y Z

Black Veil Brides - Knives And Pens tab

This what i have so far i'm working on the rest fell free to add any comments and corrections 

Tuning standard 7 string

BEADGbe

e|----------------------------------------------0---0h2p0h2p0h2p0h2|
b|------------------------------------------0-0---0----------------|
G|--------0-------------2-0-3---3---2-----0------------------------|
D|----3-------3---3-2-0-----3-----------3--------------------------|
A|--------------------------1-1---1---1----------------------------|
E|-----------------------------------------------------------------|
B|3-3---3---3---3--------------------------------------------------|

e|-----------------------------------------------------------------|
b|------------------------------------------0-0-6-5-3--------------|
G|--------0-------------2-0-3---3---2-----0-----------3-2----------|
D|----3-------3---3-2-0-----3-----------3-----------------2--------|
A|--------------------------1-1---1---1----------------------------|
E|-----------------------------------------------------------------|
B|3-3---3---3---3--------------------------------------------------|

e|----------------------------------------------0---0h2p0h2p0h2p0h2|
b|------------------------------------------0-0---0----------------|
G|--------0-------------2-0-3---3---2-----0------------------------|
D|----3-------3---3-2-0-----3-----------3--------------------------|
A|--------------------------1-1---1---1----------------------------|
E|-----------------------------------------------------------------|
B|3-3---3---3---3--------------------------------------------------|

e|-----------------------------------------------------------------|
b|-----------------------------------------------------------------|
G|--------0-------------2-0-3---3-2-0---0--------------------------|
D|----3-------3---3-2-0-----3---------3----------------------------|
A|--------------------------1-1------------------------------------|
E|-----------------------------------------------------------------|
B|3-3---3---3---3--------------------------------------------------|
Tap to rate this tab
 
# A B C D E F G H I J K L M N O P Q R S T U V W X Y Z