Song name
# A B C D E F G H I J K L M N O P Q R S T U V W X Y Z

Black Veil Brides - Heavens Calling tab

This is my first tab so cut me a some slack...but i am pretty damn sure its really 
acurate but comment and ill post corrections ......enjoy ;)


Intro:
|--------------------------------------------------------------------------|
|-------------------5454--5454---------------------------------------------|
|-----------------------65----65-------------------------------------------|
|-----------------------------------3----------3--------3--421-------------|
|4343--4343--4343----------------545-54--545-54---545-54------4P2P1-124----|
|----54----54----54--------------------65-------65-------65--------4-------|
 
|875------------------------------------------10-9-10--12-13/18-1718151718-|
|---875-------6--8--10-11---10-11-8--10-11-10------------------------------|
|------754-----------------------------------------------------------------|
|---------754--------------------------------------------------------------|
|--------------------------------------------------------------------------|
|--------------------------------------------------------------------------|
                            Verse x2:
|-18P17P15--15--------|----|-------|-------------|-------|-----------------|
|o-------18--18P17P15o|18~~|o-----o|-------------|o-----o|-578755H7H885----|
|---------------------|----|-------|-------------|-------|-----------------|
|---------------------|----|--000--|-33333553333-|--000--|-----------------|
|o-------------------o|----|o-000-o|-55555555555-|o-000-o|-----------------|
|---------------------|----|--000--|--------3333-|--000--|-----------------|
        ^repeat twice^        *** x7 ** **  **     ***
Prechorus:
|--------------------------------------------------------------------------|
|--------------------------------------------------------------------------|
|--------------------------------------------------------------------------|
|----3-------3-------3-------3----643--------------------------------------|
|-545-54--545-54--545-54--545-54-----6P4P3-346-----------------------------|
|-------65------65------65------65--------6--------------------------------|

Chorus:
|-------------|-----------|------|--99H11H12P9--|--------------------------|
|-------------|o-------3-o|------|o------------o|--------------------------|
|-------------|--------2--|------|--------------|--------------------------|
|-75359-75359-|-------2---|------|--------------|--------------------------|
|-75359-75359-|o-2222-2--o|-2222-|o------------o|--------------------------|
|-53137-53137-|--1111-----|-1111-|--------------|--------------------------|
                 ****       ****              x7
PreVerse:
|---------------------------------10-9-10--12-13/18-1718151718-------------|
|-6--8--10-11---10-11-8--10-11-10------------------------------------------|
|--------------------------------------------------------------------------|
|--------------------------------------------------------------------------|
|--------------------------------------------------------------------------|
|--------------------------------------------------------------------------|

                                             Breakdown/Bridge:
|-18P17P15--15--------|----|-------|--------|------------------------------|
|o-------18--18P17P15o|18~~|-------|--------|o-----------------------------|
|---------------------|----|-------|--------|------------------------------|
|---------------------|----|-Verse-|-Chorus-|------------------------------|
|o-------------------o|----|-------|--------|o-764-476-746--4----4----764--|
|---------------------|----|-------|--------|------------------------------|
        ^repeat twice^

|-------------------------------------------|------------------------------|
|------------------------------------------o|------------------------------|
|-------------------------------------------|------------------------------|
|-------------4H5H6H7-4T6-4T5--4T6-4T7-4T5--|------------------------------|
|-467-746----------------------------------o|-764-467-746--47-764-467-746--|
|-------------------------------------------|------------------------------|

                                       Solo:
|-------------------------------------|------------------------------------|
|-------------------------------------|------------------------------------|
|-------------------------------------|------------------------------------|
|-----875-578-875-578-878-57575-5T7~~-|----------------131415161718192021--|
|-74----------------------------------|-123456789101112--------------------|
|-------------------------------------|------------------------------------|


|--------------------------------------------------------------------------|
|-------------------------------------/15----------------------------------|
|---------------------------15T17--------/16-------------------------------|
|-222324B(26)~~-/2120191817------17T19------/17----------------------------|
|----------------------------------------------/18------------161513161513-|
|-------------------------------------------------191816191816-------------|



|--------------------------------------------------------------------------|
|-------------17~/18~16~15~13~--------14161714161714-19B~151412151412------|
|-----------------------------10121310-------------------------------------|
|-131210131210-------------------------------------------------------------|
|--------------------------------------------------------------------------|
|--------------------------------------------------------------------------|
                ⌂Trem.Pick⌂
                the 18 16 15
|--------------------------------------------------------------------21B~~-|
|-1312101312101110811108986986/81011/101213/121415/141617/16H18H19P16------|
|--------------------------------------------------------------------------|
|--------------------------------------------------------------------------|
|--------------------------------------------------------------------------|
|--------------------------------------------------------------------------|


MiniBridge:
|-------------|--------|---------------------------------------------------|
|-------------|--------|---------------------------------------------------|
|-------------|--------|---------------------------------------------------|
|-33333553333-|-Chorus-|-55--------3~~-------------------------------------|
|-55555555555-|--------|-55-000000-3~~-------------------------------------|
|--------3333-|--------|-55-000000-3~~-------------------------------------|
  ** **  **                 ******

              The End
Tap to rate this tab
 
# A B C D E F G H I J K L M N O P Q R S T U V W X Y Z