Song name
# A B C D E F G H I J K L M N O P Q R S T U V W X Y Z

Black Veil Brides - The Gunsling tab

this is my first tab, i'm pretty sure it's right :D

Drop D


e ------------------------------------------------------|
B ------------------------------------------------------|
G ------------------------------------------------------|
D -4--0-0-2-2-4-4-5-5-4-4-2-2--------2-2-4-4--------4-2-|
A -2----------------------------4-5-----------2-4-------|
D ------------------------------4-5-----------2-4-------|

e -----------------------------------------------------|
B -----------------------------------------------------|
G -----------------------------------------------------|
D -4--0-0-2-2-4-4-5-5-4-4-2-2--------------------------|
A -2----------------------------4-5~----2-4~-----------|
D ------------------------------4-5~----2-4~-----------| x2

e -----------------------------------------------------|
B -----------------------------------------------------|
G -----------------------------------------------------|
D -----------------------------------------------------|
A -2-2-2-2-2-2-2-2---------------------4-4h5-4---------|
D --2-2-2-2-2-2-2---5-2-5-2-5-2-5-4-2------------------| x4

  after the fourth time
||e---------------------------------|
||B---------------------------------|
||G---------------------------------|
||D---------------------------------|
||A--4-5~---2-4~--------------------|
||D--4-5~---2-4~--------------------|

e ------------------------------------------------------|
B -12-12-15-14-12-10--15-14--12-10-12--12-15-14-15-17---|
G ------------------------------------------------------|
D ------------------------------------------------------|
A ------------------------------------------------------|
D ------------------------------------------------------|

e -----------------------------------------------------|
B -15-14-----12~---------------------------------------|
G --------11-------------------------------------------|
D -----------------------------------------------------|
A -----------------------------------------------------|
D -----------------------------------------------------| x2

e -----------------------------------------------------|
B -----------------------------------------------------|
G -----------------------------------------------------|
D -----------------------------------------------------|
A -------4-4h5-4---------------------------------------|
D -2-2-2-----------------------------------------------|

e -----------------------------------------------------|
B -----------------------------------------------------|
G ---------------------------2-2-2-4-4-------6-6-6--2--|
D ---------------------5-5-5-----------4-4-4-----------|
A -2-2-2-2-2-2-2-2-------------------------------------|
D --2-2-2-2-2-2-2--------------------------------------|

e -----------------------------------------------------|
B -----------------------------------------------------|
G ---------------------------2"-4"-------6"--2"--------|
D ---------------------5"-----------4"-----------------|
A -2-2-2-2-2-2-2-2-------------------------------------|
D --2-2-2-2-2-2-2--------------------------------------| x2

  after the second time
||e---------------------------------|
||B---------------------------------|
||G---------------------------------|
||D---------------------------------|
||A-4-5~---2-4~---------------------|
||D-4-5~---2-4~---------------------|

e -----------------------------------------------------|
B -----------------------------------------------------|
G -----------------------------------------------------|
D -9~---5~---0~---2~-----------------------------------|
A -9~---5~---0~---2~-----------------------------------|
D -9~---5~---0~---2~-----------------------------------|

e -----------------------------------------------------|
B -----------------------------------------------------|
G -----------------------------------------------------|
D -9~---5~---0~---2~------9-9---9-9--9-----------------|
A -9~---5~---0~---2~------9-9---9-9--9-----------------|
D -9~---5~---0~---2~------9-9---9-9--9-----------------|

i don't know the little solo part here
repeat, and that's it :)
Tap to rate this tab
 
# A B C D E F G H I J K L M N O P Q R S T U V W X Y Z