Song name
# A B C D E F G H I J K L M N O P Q R S T U V W X Y Z

Black Veil Brides - All Your Hate tab

Black Veil Brides - All Your Hate
[DROP C TUNING] 
Written by RC. 

All Your Hate Solo Cover:
http://www.youtube.com/watch?v=9m9Vbz999JQ


D|--18p14----------------|--
A|---------16------------|--
F|-------------15h16h18--|-- x2
C|-----------------------|--
G|-----------------------|--
C|-----------------------|--

D|--18p14-----------------------------------------------|--
A|---------16----------------------12h14h15/16--18~-21~~|--
F|-------------15h16h15--15h16h18-----------------------|--
C|------------------------------------------------------|--
G|------------------------------------------------------|--
C|------------------------------------------------------|--

D|--19p18p16------------|--
A|------------19p18p16--|--
F|----------------------|-- x3
C|----------------------|--
G|----------------------|--
C|----------------------|--

D|------|--
A|--18~~|--
F|------|--
C|------|--
G|------|--
C|------|--

D|--19--18------18------------------------------------------------------|--
A|----------19------19--18--19p18p16----------------------15h16h18--16--|--
F|------------------------------------19p18p16--15h16h18----------------|--
C|----------------------------------------------------------------------|--
G|----------------------------------------------------------------------|--
C|----------------------------------------------------------------------|--

D|-----------------------|--
A|--16p14----------------|--
F|---------15--15b17h18--|-- x2
C|-----------------------|--
G|-----------------------|--
C|-----------------------|--

D|--------------------------------------------------|--
A|--------------------------------------15--16--18--|--
F|--------------------------14--15--17--------------|--
C|--------------13--15--17--------------------------|--
G|--13--15--17--------------------------------------|--
C|--------------------------------------------------|--


D|--------------------------------------------------------------------|--
A|--19p18p16------16h18h19p18p16------16h18h19p18p16------16--18--19~~|--
F|------------18------------------18------------------18--------------|--
C|--------------------------------------------------------------------|--
G|--------------------------------------------------------------------|--
C|--------------------------------------------------------------------|--


D|------20------------------------------------------------------------|--
A|--22------22--19h22p19------19--------------------------------------|--
F|------------------------20------20--17h20p17------17----------------|--
C|----------------------------------------------19------19--16h19p16--|--
G|--------------------------------------------------------------------|--
C|--------------------------------------------------------------------|--

D|-------------------------------------------------------|--
A|--19b21r19--18----------19b21r19--18-------------------|--
F|----------------15--15------------------------19b19b19b|-- *DELAY!*
C|--------------------------------------18--18-----------|--
G|-------------------------------------------------------|--
C|-------------------------------------------------------|--
Tap to rate this tab
 
# A B C D E F G H I J K L M N O P Q R S T U V W X Y Z