Song name
# A B C D E F G H I J K L M N O P Q R S T U V W X Y Z

Black Veil Brides - We Stitch These Wounds tab

*NEW 2010* We Stitch These Wounds (Album Version)

D|------------------------------------------------------------------|
A|------------------------------------------------------------------|
F|--10--10--12--10--13--12--10--12--10--10--12--10--13--12--10--12--|
C|------------------------------------------------------------------|
G|------------------------------------------------------------------|
C|------------------------------------------------------------------|

D|-------------------------------------------------------------|
A|-------------------------------------------------------------|
F|--8--8--10--8--12--10--8--10--13------12------10------8--10--|
C|----------------------------------10------10------10---------|
G|-------------------------------------------------------------|
C|-------------------------------------------------------------|

D|------------------------------------------------------------------|
A|------------------------------------------------------------------|
F|--10--10--12--10--13--12--10--12--10--10--12--10--13--12--10--12--|
C|------------------------------------------------------------------|
G|------------------------------------------------------------------|
C|------------------------------------------------------------------|

D|------------------------------13--11--8--9--11--9--8-------|
A|------------------------------------------------------11---|
F|--8--8--10--8--12--10--8--10-------------------------------|
C|-----------------------------------------------------------|
G|-----------------------------------------------------------|
C|-----------------------------------------------------------|

D|---------------------------------------------------------------------------------10--12--13--|
A|---------------------------------------------------------10--11--13--10--11--13--------------|
F|-----------------------------------9--10--12--9--10--12--------------------------------------|
C|-------------9--10--12--9--10--12------------------------------------------------------------|
G|--8--10--12----------------------------------------------------------------------------------|
C|---------------------------------------------------------------------------------------------|

D|-/15--18--16--15--16--15------15----------------------18--16--15----------------|
A|--------------------------18------18--16--18--16--14--------------18--18b21r18--|
F|--------------------------------------------------------------------------------|
C|--------------------------------------------------------------------------------|
G|--------------------------------------------------------------------------------|
C|--------------------------------------------------------------------------------|

D|---------------------------------|
A|-----------13/16--18--20b--------|
F|--5/8--10-----------------19-----|
C|---------------------------------|
G|---------------------------------|
C|---------------------------------|

D|------16----------------------------------------------------------------------------------|
A|--18------18--16-18-----------------------------------------------------------------------|
F|----------------------------20--17------17------------------------------------------------|
C|---------------------15/18----------20------20--18--20--18------18------------------------|
G|------------------------------------------------------------20------20--18--20--18--------|
C|------------------------------------------------------------------------------------------|

D|-----------------------------------------------------------------------------|
A|-----------------------------------------------------------------------------|
F|-----------------------------------------------------------------------------|
C|----------------------------------18------18--20--21--21--22--20--18---------|
G|------18------------------18--20------20------------------------------20-----|
C|--20------20--18--20--22-----------------------------------------------------|

D|------------------------------------------------------------------|
A|------------------------------------------------------------------|
F|----------13------15--13------17--15--13--15--13------13--15--13--|
C|--15--15------15----------15----------------------15--------------|
G|------------------------------------------------------------------|
C|------------------------------------------------------------------|

D|---------------------------------------------------|
A|------------------------------16--14/16--18b21r18--|
F|----------13------15--13---------------------------|
C|--15--15------15----------15-----------------------|
G|---------------------------------------------------|
C|---------------------------------------------------|

D|----------------------------------------------18------------------|
A|--------------18--20--21----------18--20--21--------------18--21--|
F|----------17------------------17----------------------17----------|
C|------18------------------18----------------------18--------------|
G|--20--------------------------------------------------------------|
C|------------------------------------------------------------------|

D|--20----------------------20----------------------20---------|
A|------21--------------21------21--------------21------21-----|
F|----------22------22--------------22------22-----------------|
C|--------------22----------------------22---------------------|
G|-------------------------------------------------------------|
C|-------------------------------------------------------------|

D|------------------------------------------------------|
A|------------------------------------------------------|
F|--22--22--17--17--18--20--18--17--18--17--------------|
C|------------------------------------------20--18--17--|
G|------------------------------------------------------|
C|------------------------------------------------------|

D|--16--15--13------13--15--16--15--13------13--15--16--15--13------------------------------|
A|--------------16----------------------16--------------------------------------------------|
F|--------------------------------------------------------------17--15--13------13--15--17--|
C|--------------------------------------------------------------------------15--------------|
G|------------------------------------------------------------------------------------------|
C|------------------------------------------------------------------------------------------|

D|--13--15--18--16--15------15--16--18--16--15------15--16--18--16--15----------------------------|
A|----------------------18----------------------18------------------------------------------------|
F|----------------------------------------------------------------------18--17--15------15--17--18|
C|----------------------------------------------------------------------------------18------------|
G|------------------------------------------------------------------------------------------------|
C|------------------------------------------------------------------------------------------------|

D|--15--16--20--18--20--18------18--20--21--20--18-|
A|--------------------------21---------------------|
F|-------------------------------------------------|
C|-------------------------------------------------|
G|-------------------------------------------------|
C|-------------------------------------------------|

---------------------------------------------------|
-21--20--21--20--21--18--20--21--20h21p20--18--16\-|
---------------------------------------------------|
---------------------------------------------------|
---------------------------------------------------|
---------------------------------------------------|


D|------------------------------------------------------------------------------------------------|
A|------------------------------------------------------------------------------------------------|
F|--20--18--17--------------18--17----------------------------------------------------------------|
C|--------------20--18--17----------20--18--17------22--20--18--------------20--18--17------------|
G|----------------------------------------------20--------------22--20--18--------------20--18--16|
C|------------------------------------------------------------------------------------------------|

D|----------------------|
A|-/18~~~~~~~-----------|
F|----------------------|
C|----------------------|
G|----------------------|
C|----------------------|
Tap to rate this tab
 
# A B C D E F G H I J K L M N O P Q R S T U V W X Y Z