Song name
# A B C D E F G H I J K L M N O P Q R S T U V W X Y Z

Black Veil Brides - The Gunsling tab

drop D / standart E (whatever you want, 6 string is not used, the song is played in 
D, but the intro is acoustic
E|-----------------------------------------------------------|
B|-----------------------------------------------------------|
G|--6/7--4-----7--4/6---4-----4---4---6---4----3--3/4/6/7----|
D|----------4--------------4--4--------------4-4-------------|
A|--5----------4--4------------------------------------------|
D|-----------------------------------------------------------|

E|-----------------------------------------------------------|
B|-----------------------------------------------------------|
G|--6/7--4-----7--4/6---4-----4---4---6---4----3--3/4/6/7----|
D|----------4--------------4--4--------------4-4-------------|
A|--5----------4--4------------------------------------------|
D|-----------------------------------------------------------|

E|-----------------------------------------------------------|
B|-------------7---------------------------------------------|
G|--6/7--4--------4/6---4-----4---4---6---4----3--3/4/6/7----|
D|----------4--------------4--4--------------4-4-------------|
A|--5-------------4------------------------------------------|
D|-----------------------------------------------------------|

E|-----------------------------------------------------------|
B|-------------7---------------------------------------------|
G|--6/7--4--------4/6---4-----4---4---6---4----3--3/4/6/7----|
D|----------4--------------4--4--------------4-4-------------|
A|--5----------4--4------------------------------------------|
D|-----------------------------------------------------------|

E|-----------------------------------------------------------|
B|-------------7------------7-------------7------------------|
G|--6/7--4--------6/7---4-------6/7---4------4/6-----5\4\3---|
D|----------4--4----------------------4----------------------|
A|--5-------------------4------------------------------------|
D|-----------------------------------------------------------|

E|-----------------------------------------------------------|
B|-------------7------------7-------------7------------------|
G|--6/7--4--------6/7---4-------6/7---4------4/6-----5\4\3---|
D|----------4--4----------------------4----------------------|
A|--5-------------------4------------------------------------|
D|-----------------------------------------------------------|

E|-----------------------------------------------------------|
B|-------------7---------------------------------------------|
G|--6/7--4--------4/6---4-----4---4---6---4----3--3/4/6/7----|
D|----------4--------------4--4--------------4-4-------------|
A|--5----------4--4------------------------------------------|
D|-----------------------------------------------------------|

E|-----------------------------------------------------------|
B|-------------7---------------------------------------------|
G|--6/7--4--------4/6---4-----4---4---6---4----3--3/4/6/7----|
D|----------4--------------4--4--------------4-4-------------|
A|--5----------4--4------------------------------------------|
D|-----------------------------------------------------------|

E|------------------|
B|------------------|
G|-6/7--4-----------|
D|----------4-------|
A|-5----------------|
D|------------------|
Tap to rate this tab
 
# A B C D E F G H I J K L M N O P Q R S T U V W X Y Z