Song name
# A B C D E F G H I J K L M N O P Q R S T U V W X Y Z

Black Veil Brides - Beautiful Remains tab

~Intro~ (UNTIL FIRST LYRICS COME IN)

**IMPORTANT NOTE**
This song is in DROP C#... the tabbing program i used made it EBGDAE on tab but 
its DROP C#. (: enjoy the song!

E|----------------------------------------------------------------|-
B|----------------------------------------------------------------|-
G|--10--12p10--9------10--9-----------------9--12--10--9----------|-
D|----------------12---------12--10--8--11----------------12--11--|-
A|----------------------------------------------------------------|-
E|----------------------------------------------------------------|-

E|--------------------------------------------------------|--
B|--------------------------------------------------------|--
G|--------------------------------------------------------|--
D|--------------------------------------------------------|--
A|--------8-----7--------8--------7-----10--7h8p7---------|--
E|--0--0-----0-----0--0-----0--0-----0-------------10--8--|--

E|--------------------------------------x-|--
B|--------------------------------------x-|--
G|--------------------------------------x-|--
D|--------------------------------------x-|--
A|--------8-----7--------8--------7-----x-|--
E|--8--8-----8-----8--8-----8--8-----8--x-|--

E|--------------------|--
B|--------------------|--
G|--------------------|--
D|--------------------|--
A|--7--8--8-----------|--
E|-----------7--8--7--|--

E|--------------------------------------------------------|--
B|--------------------------------------------------------|--
G|--------------------------------------------------------|--
D|--------------------------------------------------------|--
A|--------8-----7--------8--------7-----10--7h8p7---------|--
E|--0--0-----0-----0--0-----0--0-----0-------------10--8--|--

E|---------------------------------------------------|--
B|---------------------------------------------------|--
G|---------------------------------------------------|--
D|--------------------------------------10--8--7-----|--
A|--------8-----7--------8--------7---------------10-|--
E|--8--8-----8-----8--8-----8--8-----8---------------|--


E|----------------------------------------------------------------|--
B|----------------------------------------------------------------|--
G|----------------------------------------------------------------|--
D|----------------------------------------------------------------|--
A|----------8------7----------8----------7------10--7h8p7---------|--
E|--10--10-----10-----10--10-----10--10-----10-------------10--8--|--


E|------------------------------------------------|--
B|------------------------------------------------|--
G|------------------------------------------------|--
D|--5----5--5--5--5--5--5----------------------0--|--
A|--5----5--5--5--5--5--5----7--8--8-----------0--|--
E|--5----5--5--5--5--5--5-------------7--8--7--0--|--
Tap to rate this tab
# A B C D E F G H I J K L M N O P Q R S T U V W X Y Z