Song name
# A B C D E F G H I J K L M N O P Q R S T U V W X Y Z

Black Veil Brides - We Stitch These Wounds tab

Artist: Black Veil Brides
Song: We Stitch These Wounds
Album: We Stitch These Wounds

Intro x4
e|---------------------------------|---------------------------------|
B|---------------------------------|---------------------------------|
G|-4-------------------------------|-4-----------2---2-2-2-2-2-2-2-2-|
D|-4-----------2---2-2-2-2-2-2-2-2-|-2-----------2---2-2-2-2-2-2-2-2-|
A|-2-----------2---2-2-2-2-2-2-2-2-|-2-----------2---2-2-2-2-2-2-2-2-|
D|-2-----222-2-2---2-2-2-2-2-2-2-2-|-------222-2---------------------|

Break (Guitar 1)
e|---------------------------------|---------------------------------|
B|---------------------------------|---------------------------------|
G|---------------------------------|---------------------------------|
D|-----5---4-----2---4---5-4---2---|-----5---4-----2---4---4h5p4-2-4-|
A|---------------------------------|---------------------------------|
D|-2-2---2---2-2---2---2-----2---2-|-0-0---0---0-0---0---0-----------|
(Guitar 2)
e|---------------------------------|---------------------------------|
B|---------------------------------|---------------------------------|
G|---------------------------------|---------------------------------|
D|-2~------------------------------|-0-0-----------------------------|
A|-2~------------------------------|-0-0-----------------------------|
D|-2~------------------------------|-0-0-----------------------------|

(Guitar 1)
e|---------------------------------|---------------------------------|
B|---------------------------------|---------------------------------|
G|---------------------------------|---------------------------------|
D|-----5---4-----2---4---5-4---2---|-0-0---------0-0-----------------|
A|---------------------------------|-0-0---------0-0-------10^-------|
D|-2-2---2---2-2---2---2-----2---2-|-0-0---------0-0-----------------|
(Guitar 2)
e|---------------------------------|---------------------------------|
B|---------------------------------|---------------------------------|
G|---------------------------------|---------------------------------|
D|-2~------------------------------|-0-0---------0-0-----------------|
A|-2~------------------------------|-0-0---------0-0-----------------|
D|-2~------------------------------|-0-0---------0-0-----------------|

Verse x2(Guitar 1)
e|---------------------------------|---------------------------------|
B|---------------------------------|---------------------------------|
G|---------------------------------|---------------------------------|
D|-----5---4-----2---4---5-4---2---|-----5---4-----2---4---4h5p4-2-4-|
A|---------------------------------|---------------------------------|
D|-2-2---2---2-2---2---2-----2---2-|-0-0---0---0-0---0---0-----------|
(Guitar 2)
e|---------------------------------|---------------------------------|
B|---------------------------------|---------------------------------|
G|---------------------------------|---------------------------------|
D|-2-2-----------2-----------------|-0-0-----------0-----------------|
A|-2-2-----------2-----------------|-0-0-----------0-----------------|
D|-2-2-------222-2-----------------|-0-0-------000-0-----------------|

(Guitar 1)
e|---------------------------------|---------------------------------|
B|---------------------------------|---------------------------------|
G|---------------------------------|---------------------------------|
D|-----5---4-----2---4---5-4---2---|-----5---4-----2---4-----4h5-5h7-|
A|---------------------------------|---------------------------------|
D|-2-2---2---2-2---2---2-----2---2-|-0-0---0---0-0---0---0-0---------|
(Guitar 2)
e|---------------------------------|---------------------------------|
B|---------------------------------|---------------------------------|
G|---------------------------------|---------------------------------|
D|-2-2-----------2-----------------|-0-0-----------0-----------------|
A|-2-2-----------2-----------------|-0-0-----------0-----------------|
D|-2-2-------222-2-----------------|-0-0-------000-0-----------------|

Chorus x2 (Guitar 1)
e|---------------------------------|---------------------------------|
B|---------------------------------|---------------------------------|
G|-------------4~------------------|-------------7-------------------|
D|-2~------2-2-2~------2---2~------|-5~------5-5-5----/9-9-9-9-7-7---|
A|-2~------2-2-2~------2---2~------|-5~------5-5-5-------------------|
D|-2~------2-2-2~------2---2~------|-5~------5-5-5-------------------|
(Guitar 2)
e|---------------------------------|---------------------------------|
B|---------------------------------|---------------------------------|
G|-------------4~------------------|-------------7-------------------|
D|-2~----------2~------2---2~------|-5~------5-5-5----/5-5-5-5-4-4---|
A|-2~------2-2-2~------2---2~------|-5~------5-5-5-------------------|
D|-2~------2-2-2~------2---2~------|-5~------5-5-5-------------------|

(Both Guitars)
e|---------------------------------|---------------------------------|
B|---------------------------------|---------------------------------|
G|---------------------------------|---------------------------------|
D|-0~----------0~----------0-0-----|-0~----------0~----------0---0---|
A|-0~------0-0-0~----------0-0-----|-0~------0-0-0~----------0---0---|
D|-0~------0-0-0~----------0-0-----|-0~------0-0-0~----------0---0---|

Bridge x2 (Guitar 1)
e|---------------------------------|---------------------------------|
B|---------------------------------|---------------------------------|
G|---------------------------------|---------------------------------|
D|-5~------4-0-2~------0---2~------|-5~------7---4~------------------|
A|---------------------------------|---------------------------------|
D|---------------------------------|---------------------------------|
(Guitar 2)
e|---------------------------------|---------------------------------|
B|---------------------------------|---------------------------------|
G|-4-------------------------------|-4-----------2---2-2-2-2-2-2-2-2-|
D|-4-----------2---2-2-2-2-2-2-2-2-|-2-----------2---2-2-2-2-2-2-2-2-|
A|-2-----------2---2-2-2-2-2-2-2-2-|-2-----------2---2-2-2-2-2-2-2-2-|
D|-2-----222-2-2---2-2-2-2-2-2-2-2-|-------222-2---------------------|

Verse x3

Chorus x4

Solo x2 (Guitar 1)
e|---------------------------------|---------------------------------|
B|---------------------------------|---------------------------------|
G|-----------4p6h7p6---------6h7h9-|-7--------------/9---7-6-7p6-6---|
D|-2-------------------------------|---------------------------------|
A|-2-------------------------------|---------------------------------|
D|-2-------------------------------|---------------------------------|
(Guitar 2)
e|---------------------------------|---------------------------------|
B|---------------------------------|---------------------------------|
G|---------------------------------|---------------------------------|
D|-2---------4h6h7p6---------6h7h9-|-7--------------/9---7-6-7p6-6---|
A|-2-------------------------------|---------------------------------|
D|-2-------------------------------|---------------------------------|

Solo part 2 x2 (Guitar 1)
e|---------------------------------|---------------------------------|
B|-----------5h7h8p7--------7h8h10-|-8--------------/10--8-7-8p7-7---|
G|---------------------------------|---------------------------------|
D|-2-------------------------------|---------------------------------|
A|-2-------------------------------|---------------------------------|
D|-2-------------------------------|---------------------------------|
(Guitar 2)
e|---------------------------------|---------------------------------|
B|---------------------------------|---------------------------------|
G|-----------4h6h7p6---------6h7h9-|-7--------------/9---7-6-7p6-6---|
D|-2-------------------------------|---------------------------------|
A|-2-------------------------------|---------------------------------|
D|-2-------------------------------|---------------------------------|

Bridge (with phaser)
e|---------------------------------|---------------------------------|
B|---------------------------------|---------------------------------|
G|---------------------------------|---------------------------------|
D|-2-2-2-2-2-2-2-2-4-4-4-4-4-4-4-4-|-5-5-5-5-5-5-5-5-7-7-7-5-5-5-4-5-|
A|-2-2-2-2-2-2-2-2-4-4-4-4-4-4-4-4-|-5-5-5-5-5-5-5-5-7-7-7-5-5-5-4-5-|
D|-2-2-2-2-2-2-2-2-4-4-4-4-4-4-4-4-|-5-5-5-5-5-5-5-5-7-7-7-5-5-5-4-5-|

Chorus x4

Outro(Guitar 1)
e|---------------------------------|---------------------------------|
B|---------------------------------|---------------------------------|
G|---------------------------------|---------------------------------|
D|-----5---4-----2---4---5-4---2---|-----5---4-----2---4---4h5p4-2-4-|
A|---------------------------------|---------------------------------|
D|-2-2---2---2-2---2---2-----2---2-|-0-0---0---0-0---0---0-----------|
(Guitar 2)
e|---------------------------------|---------------------------------|
B|---------------------------------|---------------------------------|
G|---------------------------------|---------------------------------|
D|-2-2-----2-2-----2-2-----2-2-----|-0-0-----0-0-----0-0-----0-0-----|
A|-2-2-----2-2-----2-2-----2-2-----|-0-0-----0-0-----0-0-----0-0-----|
D|-2-2-----2-2-----2-2-----2-2-----|-0-0-----0-0-----0-0-----0-0-----|

(Guitar 1)
e|---------------------------------|---------------------------------|
B|---------------------------------|---------------------------------|
G|---------------------------------|---------------------------------|
D|-----5---4-----2---4---5-4---2---|-----5---4-----2---4-----4h5-5h7-|
A|---------------------------------|---------------------------------|
D|-2-2---2---2-2---2---2-----2---2-|-0-0---0---0-0---0---0-0---------|
(Guitar 2)
e|---------------------------------|---------------------------------|
B|---------------------------------|---------------------------------|
G|---------------------------------|---------------------------------|
D|-2-2-----2-2-----2-2-----2-2-----|-0-0-----0-0-----0-0-----0-0-----|
A|-2-2-----2-2-----2-2-----2-2-----|-0-0-----0-0-----0-0-----0-0-----|
D|-2-2-----2-2-----2-2-----2-2-----|-0-0-----0-0-----0-0-----0-0-----|

(Both Guitars)
e|---------------------------------|---------------------------------|
B|---------------------------------|---------------------------------|
G|---------------------------------|---------------------------------|
D|-2-2-----2-2-----2-2-----2-2-----|-0-0-----0-0-----0-0-----0-0-----|
A|-2-2-----2-2-----2-2-----2-2-----|-0-0-----0-0-----0-0-----0-0-----|
D|-2-2-----2-2-----2-2-----2-2-----|-0-0-----0-0-----0-0-----0-0-----|

(Guitar 1)
e|---------------------------------|---------------------------------|
B|---------------------------------|---------------------------------|
G|---------------------------------|---------------------------------|
D|-2-2-----2-2-----2-2-----2-2-----|-----5---4-----2---4-----4h5-5h7-|
A|-2-2-----2-2-----2-2-----2-2-----|---------------------------------|
D|-2-2-----2-2-----2-2-----2-2-----|-0-0---0---0-0---0---0-0---------|
(Guitar 2)
e|---------------------------------|---------------------------------|
B|---------------------------------|---------------------------------|
G|---------------------------------|---------------------------------|
D|-2-2-----2-2-----2-2-----2-2-----|-0-0-----0-0-----0-0-----0-0-----|
A|-2-2-----2-2-----2-2-----2-2-----|-0-0-----0-0-----0-0-----0-0-----|
D|-2-2-----2-2-----2-2-----2-2-----|-0-0-----0-0-----0-0-----0-0-----|

(Both Guitars)
e|---------------------------------|
B|---------------------------------|
G|---------------------------------|
D|-2-2---------2-2-----------------| Tabbed By: Ryan Wakerell
A|-2-2---------2-2-----------------| 
D|-2-2---------2-2-----------------| End
Tap to rate this tab
 
# A B C D E F G H I J K L M N O P Q R S T U V W X Y Z