Song name
# A B C D E F G H I J K L M N O P Q R S T U V W X Y Z

Black Veil Brides - Carolyn tab

-----------------------------------------------------------------------------
			     Carolyn - Black Veil Brides
-----------------------------------------------------------------------------
Tabbed by: PirateKaiser
Email: piratek@live.com

Tuning: Standard
The Chorus melody for Carolyn
I will receive suggestions or corrections!

e----------------15---15-------------|
B 15B^ 17-15----17---17-15h17-15h17--| x3
G------------------------------------|
D------------------------------------|
A------------------------------------|
E------------------------------------|

e--15------------------17-14-------15-|
B-----17------------15-------15-15----|
G-------17----------------------------|
D---------17-14-17--------------------|
A-------------------------------------|
E-------------------------------------|

************************************

| /   slide up
| \   slide down
| h   hammer-on
| p   pull-off
| ~   vibrato
| +   harmonic
| x   Mute note
| b   Bend
| pb  Pre-bend
| br  Bend release
| pbr Pre-bend release
| brb Bend release bend

************************************
Tap to rate this tab
 
# A B C D E F G H I J K L M N O P Q R S T U V W X Y Z